ISO-10303-21;
HEADER;
/* Generated by software containing ST-Developer
 * from STEP Tools, Inc. (www.steptools.com) 
 */
/* OPTION: using custom schema-name function */

FILE_DESCRIPTION(
/* description */ (''),
/* implementation_level */ '2;1');

FILE_NAME(
/* name */ '69871.30AD-SC.05.080.stp',
/* time_stamp */ '2024-06-24T06:38:59+02:00',
/* author */ (''),
/* organization */ (''),
/* preprocessor_version */ 'ST-DEVELOPER v16.7',
/* originating_system */ 'SIEMENS PLM Software NX 12.0',
/* authorisation */ '');

FILE_SCHEMA (('AUTOMOTIVE_DESIGN { 1 0 10303 214 3 1 1 1 }'));
ENDSEC;

DATA;
#10=CONSTRUCTIVE_GEOMETRY_REPRESENTATION_RELATIONSHIP(
'supplemental geometry','',#32,#11);
#11=CONSTRUCTIVE_GEOMETRY_REPRESENTATION('supplemental geometry',(#294,
#295,#296),#506);
#12=PROPERTY_DEFINITION_REPRESENTATION(#16,#14);
#13=PROPERTY_DEFINITION_REPRESENTATION(#17,#15);
#14=REPRESENTATION('',(#18),#506);
#15=REPRESENTATION('',(#19),#506);
#16=PROPERTY_DEFINITION('pmi validation property','',#23);
#17=PROPERTY_DEFINITION('pmi validation property','',#23);
#18=VALUE_REPRESENTATION_ITEM('number of annotations',COUNT_MEASURE(0.));
#19=VALUE_REPRESENTATION_ITEM('number of views',COUNT_MEASURE(0.));
#20=SHAPE_REPRESENTATION_RELATIONSHIP('None',
'relationship between pf6639C8F234kgqk-None and pf6639C8F234kgqk-None',
#32,#21);
#21=ADVANCED_BREP_SHAPE_REPRESENTATION('pf6639C8F234kgqk-None',(#38),#506);
#22=SHAPE_DEFINITION_REPRESENTATION(#23,#32);
#23=PRODUCT_DEFINITION_SHAPE('','',#24);
#24=PRODUCT_DEFINITION(' ','',#26,#25);
#25=PRODUCT_DEFINITION_CONTEXT('part definition',#31,'design');
#26=PRODUCT_DEFINITION_FORMATION_WITH_SPECIFIED_SOURCE(' ',' ',#28,
 .NOT_KNOWN.);
#27=PRODUCT_RELATED_PRODUCT_CATEGORY('part','',(#28));
#28=PRODUCT('pf6639C8F234kgqk','pf6639C8F234kgqk',' ',(#29));
#29=PRODUCT_CONTEXT(' ',#31,'mechanical');
#30=APPLICATION_PROTOCOL_DEFINITION('international standard',
'automotive_design',2010,#31);
#31=APPLICATION_CONTEXT(
'core data for automotive mechanical design processes');
#32=SHAPE_REPRESENTATION('pf6639C8F234kgqk-None',(#293),#506);
#33=SURFACE_STYLE_USAGE(.BOTH.,#34);
#34=SURFACE_SIDE_STYLE('',(#35));
#35=SURFACE_STYLE_FILL_AREA(#36);
#36=FILL_AREA_STYLE('',(#37));
#37=FILL_AREA_STYLE_COLOUR('',#289);
#38=MANIFOLD_SOLID_BREP('',#39);
#39=CLOSED_SHELL('',(#77,#78,#79,#80,#81,#82,#83,#84,#85,#86,#87,#88,#89,
#90,#91,#92,#93,#94,#95));
#40=FACE_OUTER_BOUND('',#136,.T.);
#41=FACE_OUTER_BOUND('',#137,.T.);
#42=FACE_OUTER_BOUND('',#138,.T.);
#43=FACE_OUTER_BOUND('',#139,.T.);
#44=FACE_OUTER_BOUND('',#140,.T.);
#45=FACE_OUTER_BOUND('',#141,.T.);
#46=FACE_OUTER_BOUND('',#142,.T.);
#47=FACE_OUTER_BOUND('',#143,.T.);
#48=FACE_OUTER_BOUND('',#144,.T.);
#49=FACE_OUTER_BOUND('',#145,.T.);
#50=LINE('',#471,#56);
#51=LINE('',#473,#57);
#52=LINE('',#485,#58);
#53=LINE('',#489,#59);
#54=LINE('',#493,#60);
#55=LINE('',#495,#61);
#56=VECTOR('',#388,1.);
#57=VECTOR('',#389,1.);
#58=VECTOR('',#406,1.);
#59=VECTOR('',#409,1.);
#60=VECTOR('',#416,1.);
#61=VECTOR('',#417,1.);
#62=TOROIDAL_SURFACE('',#310,22.525,0.5);
#63=TOROIDAL_SURFACE('',#314,22.525,0.5);
#64=TOROIDAL_SURFACE('',#334,13.,3.);
#65=TOROIDAL_SURFACE('',#336,13.,3.);
#66=CONICAL_SURFACE('',#308,23.73127357173,60.);
#67=CONICAL_SURFACE('',#316,23.73127357179,60.);
#68=CONICAL_SURFACE('',#319,12.51453841141,8.2971);
#69=CONICAL_SURFACE('',#322,12.51453841141,8.2971);
#70=CONICAL_SURFACE('',#327,8.786263421037,4.5);
#71=CONICAL_SURFACE('',#329,8.786263421037,4.5);
#72=CYLINDRICAL_SURFACE('',#306,25.);
#73=CYLINDRICAL_SURFACE('',#312,22.025);
#74=CYLINDRICAL_SURFACE('',#317,25.);
#75=CYLINDRICAL_SURFACE('',#331,10.);
#76=CYLINDRICAL_SURFACE('',#337,10.);
#77=ADVANCED_FACE('',(#100,#101),#96,.F.);
#78=ADVANCED_FACE('',(#102,#103),#97,.T.);
#79=ADVANCED_FACE('',(#104,#105),#72,.T.);
#80=ADVANCED_FACE('',(#106,#107),#66,.T.);
#81=ADVANCED_FACE('',(#108,#109),#62,.F.);
#82=ADVANCED_FACE('',(#110,#111),#73,.T.);
#83=ADVANCED_FACE('',(#112,#113),#63,.F.);
#84=ADVANCED_FACE('',(#114,#115),#67,.T.);
#85=ADVANCED_FACE('',(#116,#117),#74,.T.);
#86=ADVANCED_FACE('',(#40),#68,.T.);
#87=ADVANCED_FACE('',(#41),#98,.F.);
#88=ADVANCED_FACE('',(#42),#69,.T.);
#89=ADVANCED_FACE('',(#43),#99,.T.);
#90=ADVANCED_FACE('',(#44),#70,.T.);
#91=ADVANCED_FACE('',(#45),#71,.T.);
#92=ADVANCED_FACE('',(#46),#75,.T.);
#93=ADVANCED_FACE('',(#47),#64,.F.);
#94=ADVANCED_FACE('',(#48),#65,.F.);
#95=ADVANCED_FACE('',(#49),#76,.T.);
#96=PLANE('',#300);
#97=PLANE('',#304);
#98=PLANE('',#321);
#99=PLANE('',#325);
#100=FACE_BOUND('',#118,.T.);
#101=FACE_BOUND('',#119,.T.);
#102=FACE_BOUND('',#120,.T.);
#103=FACE_BOUND('',#121,.T.);
#104=FACE_BOUND('',#122,.T.);
#105=FACE_BOUND('',#123,.T.);
#106=FACE_BOUND('',#124,.T.);
#107=FACE_BOUND('',#125,.T.);
#108=FACE_BOUND('',#126,.T.);
#109=FACE_BOUND('',#127,.T.);
#110=FACE_BOUND('',#128,.T.);
#111=FACE_BOUND('',#129,.T.);
#112=FACE_BOUND('',#130,.T.);
#113=FACE_BOUND('',#131,.T.);
#114=FACE_BOUND('',#132,.T.);
#115=FACE_BOUND('',#133,.T.);
#116=FACE_BOUND('',#134,.T.);
#117=FACE_BOUND('',#135,.T.);
#118=EDGE_LOOP('',(#146));
#119=EDGE_LOOP('',(#147,#148));
#120=EDGE_LOOP('',(#149));
#121=EDGE_LOOP('',(#150,#151));
#122=EDGE_LOOP('',(#152));
#123=EDGE_LOOP('',(#153));
#124=EDGE_LOOP('',(#154));
#125=EDGE_LOOP('',(#155));
#126=EDGE_LOOP('',(#156));
#127=EDGE_LOOP('',(#157));
#128=EDGE_LOOP('',(#158));
#129=EDGE_LOOP('',(#159));
#130=EDGE_LOOP('',(#160));
#131=EDGE_LOOP('',(#161));
#132=EDGE_LOOP('',(#162));
#133=EDGE_LOOP('',(#163));
#134=EDGE_LOOP('',(#164));
#135=EDGE_LOOP('',(#165));
#136=EDGE_LOOP('',(#166,#167,#168,#169));
#137=EDGE_LOOP('',(#170,#171));
#138=EDGE_LOOP('',(#172,#173,#174,#175));
#139=EDGE_LOOP('',(#176,#177));
#140=EDGE_LOOP('',(#178,#179,#180,#181));
#141=EDGE_LOOP('',(#182,#183,#184,#185));
#142=EDGE_LOOP('',(#186,#187,#188,#189));
#143=EDGE_LOOP('',(#190,#191,#192,#193));
#144=EDGE_LOOP('',(#194,#195,#196,#197));
#145=EDGE_LOOP('',(#198,#199,#200,#201));
#146=ORIENTED_EDGE('',*,*,#222,.T.);
#147=ORIENTED_EDGE('',*,*,#223,.T.);
#148=ORIENTED_EDGE('',*,*,#224,.T.);
#149=ORIENTED_EDGE('',*,*,#225,.F.);
#150=ORIENTED_EDGE('',*,*,#226,.F.);
#151=ORIENTED_EDGE('',*,*,#227,.F.);
#152=ORIENTED_EDGE('',*,*,#225,.T.);
#153=ORIENTED_EDGE('',*,*,#228,.T.);
#154=ORIENTED_EDGE('',*,*,#228,.F.);
#155=ORIENTED_EDGE('',*,*,#229,.T.);
#156=ORIENTED_EDGE('',*,*,#229,.F.);
#157=ORIENTED_EDGE('',*,*,#230,.T.);
#158=ORIENTED_EDGE('',*,*,#230,.F.);
#159=ORIENTED_EDGE('',*,*,#231,.T.);
#160=ORIENTED_EDGE('',*,*,#231,.F.);
#161=ORIENTED_EDGE('',*,*,#232,.T.);
#162=ORIENTED_EDGE('',*,*,#232,.F.);
#163=ORIENTED_EDGE('',*,*,#233,.T.);
#164=ORIENTED_EDGE('',*,*,#233,.F.);
#165=ORIENTED_EDGE('',*,*,#222,.F.);
#166=ORIENTED_EDGE('',*,*,#234,.F.);
#167=ORIENTED_EDGE('',*,*,#224,.F.);
#168=ORIENTED_EDGE('',*,*,#235,.T.);
#169=ORIENTED_EDGE('',*,*,#236,.F.);
#170=ORIENTED_EDGE('',*,*,#237,.T.);
#171=ORIENTED_EDGE('',*,*,#236,.T.);
#172=ORIENTED_EDGE('',*,*,#235,.F.);
#173=ORIENTED_EDGE('',*,*,#223,.F.);
#174=ORIENTED_EDGE('',*,*,#234,.T.);
#175=ORIENTED_EDGE('',*,*,#237,.F.);
#176=ORIENTED_EDGE('',*,*,#238,.F.);
#177=ORIENTED_EDGE('',*,*,#239,.F.);
#178=ORIENTED_EDGE('',*,*,#240,.T.);
#179=ORIENTED_EDGE('',*,*,#241,.F.);
#180=ORIENTED_EDGE('',*,*,#242,.F.);
#181=ORIENTED_EDGE('',*,*,#239,.T.);
#182=ORIENTED_EDGE('',*,*,#242,.T.);
#183=ORIENTED_EDGE('',*,*,#243,.T.);
#184=ORIENTED_EDGE('',*,*,#240,.F.);
#185=ORIENTED_EDGE('',*,*,#238,.T.);
#186=ORIENTED_EDGE('',*,*,#244,.F.);
#187=ORIENTED_EDGE('',*,*,#243,.F.);
#188=ORIENTED_EDGE('',*,*,#245,.T.);
#189=ORIENTED_EDGE('',*,*,#246,.T.);
#190=ORIENTED_EDGE('',*,*,#247,.T.);
#191=ORIENTED_EDGE('',*,*,#246,.F.);
#192=ORIENTED_EDGE('',*,*,#248,.F.);
#193=ORIENTED_EDGE('',*,*,#226,.T.);
#194=ORIENTED_EDGE('',*,*,#248,.T.);
#195=ORIENTED_EDGE('',*,*,#249,.F.);
#196=ORIENTED_EDGE('',*,*,#247,.F.);
#197=ORIENTED_EDGE('',*,*,#227,.T.);
#198=ORIENTED_EDGE('',*,*,#245,.F.);
#199=ORIENTED_EDGE('',*,*,#241,.T.);
#200=ORIENTED_EDGE('',*,*,#244,.T.);
#201=ORIENTED_EDGE('',*,*,#249,.T.);
#202=VERTEX_POINT('',#439);
#203=VERTEX_POINT('',#441);
#204=VERTEX_POINT('',#442);
#205=VERTEX_POINT('',#446);
#206=VERTEX_POINT('',#448);
#207=VERTEX_POINT('',#449);
#208=VERTEX_POINT('',#453);
#209=VERTEX_POINT('',#456);
#210=VERTEX_POINT('',#459);
#211=VERTEX_POINT('',#462);
#212=VERTEX_POINT('',#465);
#213=VERTEX_POINT('',#468);
#214=VERTEX_POINT('',#472);
#215=VERTEX_POINT('',#474);
#216=VERTEX_POINT('',#481);
#217=VERTEX_POINT('',#482);
#218=VERTEX_POINT('',#486);
#219=VERTEX_POINT('',#488);
#220=VERTEX_POINT('',#494);
#221=VERTEX_POINT('',#496);
#222=EDGE_CURVE('',#202,#202,#250,.T.);
#223=EDGE_CURVE('',#203,#204,#251,.T.);
#224=EDGE_CURVE('',#204,#203,#252,.T.);
#225=EDGE_CURVE('',#205,#205,#253,.T.);
#226=EDGE_CURVE('',#206,#207,#254,.T.);
#227=EDGE_CURVE('',#207,#206,#255,.T.);
#228=EDGE_CURVE('',#208,#208,#256,.T.);
#229=EDGE_CURVE('',#209,#209,#257,.T.);
#230=EDGE_CURVE('',#210,#210,#258,.T.);
#231=EDGE_CURVE('',#211,#211,#259,.T.);
#232=EDGE_CURVE('',#212,#212,#260,.T.);
#233=EDGE_CURVE('',#213,#213,#261,.T.);
#234=EDGE_CURVE('',#203,#214,#50,.T.);
#235=EDGE_CURVE('',#204,#215,#51,.T.);
#236=EDGE_CURVE('',#214,#215,#262,.T.);
#237=EDGE_CURVE('',#215,#214,#263,.T.);
#238=EDGE_CURVE('',#216,#217,#264,.T.);
#239=EDGE_CURVE('',#217,#216,#265,.T.);
#240=EDGE_CURVE('',#216,#218,#52,.T.);
#241=EDGE_CURVE('',#219,#218,#266,.T.);
#242=EDGE_CURVE('',#217,#219,#53,.T.);
#243=EDGE_CURVE('',#219,#218,#267,.T.);
#244=EDGE_CURVE('',#218,#220,#54,.T.);
#245=EDGE_CURVE('',#219,#221,#55,.T.);
#246=EDGE_CURVE('',#221,#220,#268,.T.);
#247=EDGE_CURVE('',#207,#220,#269,.T.);
#248=EDGE_CURVE('',#206,#221,#270,.T.);
#249=EDGE_CURVE('',#220,#221,#271,.T.);
#250=CIRCLE('',#297,25.);
#251=CIRCLE('',#298,16.3416641016637);
#252=CIRCLE('',#299,16.3416641016637);
#253=CIRCLE('',#301,25.);
#254=CIRCLE('',#302,13.);
#255=CIRCLE('',#303,13.);
#256=CIRCLE('',#305,25.);
#257=CIRCLE('',#307,22.46254714345);
#258=CIRCLE('',#309,22.025);
#259=CIRCLE('',#311,22.025);
#260=CIRCLE('',#313,22.46254714358);
#261=CIRCLE('',#315,25.);
#262=CIRCLE('',#318,8.90420498141631);
#263=CIRCLE('',#320,8.90420498141631);
#264=CIRCLE('',#323,7.49999999999989);
#265=CIRCLE('',#324,7.49999999999989);
#266=CIRCLE('',#326,10.);
#267=CIRCLE('',#328,10.);
#268=CIRCLE('',#330,10.);
#269=CIRCLE('',#332,3.);
#270=CIRCLE('',#333,3.);
#271=CIRCLE('',#335,10.);
#272=INVISIBILITY((#273,#274,#275));
#273=PRESENTATION_LAYER_ASSIGNMENT('100','Layer 100',(#294));
#274=PRESENTATION_LAYER_ASSIGNMENT('101','Layer 101',(#295));
#275=PRESENTATION_LAYER_ASSIGNMENT('102','Layer 102',(#296));
#276=PRESENTATION_LAYER_ASSIGNMENT('98','Layer 98',(#38));
#277=STYLED_ITEM('',(#281),#294);
#278=STYLED_ITEM('',(#282),#295);
#279=STYLED_ITEM('',(#283),#296);
#280=STYLED_ITEM('',(#284),#38);
#281=PRESENTATION_STYLE_ASSIGNMENT((#285));
#282=PRESENTATION_STYLE_ASSIGNMENT((#286));
#283=PRESENTATION_STYLE_ASSIGNMENT((#287));
#284=PRESENTATION_STYLE_ASSIGNMENT((#33));
#285=CURVE_STYLE('',#290,POSITIVE_LENGTH_MEASURE(0.7),#288);
#286=CURVE_STYLE('',#291,POSITIVE_LENGTH_MEASURE(0.7),#288);
#287=CURVE_STYLE('',#292,POSITIVE_LENGTH_MEASURE(0.7),#288);
#288=COLOUR_RGB('Medium Maroon',0.6,0.4,0.4);
#289=COLOUR_RGB('Medium Gray',0.490196078431373,0.490196078431373,0.490196078431373);
#290=DRAUGHTING_PRE_DEFINED_CURVE_FONT('continuous');
#291=DRAUGHTING_PRE_DEFINED_CURVE_FONT('continuous');
#292=DRAUGHTING_PRE_DEFINED_CURVE_FONT('continuous');
#293=AXIS2_PLACEMENT_3D('',#434,#338,#339);
#294=AXIS2_PLACEMENT_3D('PCS',#435,#340,#341);
#295=AXIS2_PLACEMENT_3D('CSW',#436,#342,#343);
#296=AXIS2_PLACEMENT_3D('MCS',#437,#344,#345);
#297=AXIS2_PLACEMENT_3D('',#438,#346,#347);
#298=AXIS2_PLACEMENT_3D('',#440,#348,#349);
#299=AXIS2_PLACEMENT_3D('',#443,#350,#351);
#300=AXIS2_PLACEMENT_3D('',#444,#352,#353);
#301=AXIS2_PLACEMENT_3D('',#445,#354,#355);
#302=AXIS2_PLACEMENT_3D('',#447,#356,#357);
#303=AXIS2_PLACEMENT_3D('',#450,#358,#359);
#304=AXIS2_PLACEMENT_3D('',#451,#360,#361);
#305=AXIS2_PLACEMENT_3D('',#452,#362,#363);
#306=AXIS2_PLACEMENT_3D('',#454,#364,#365);
#307=AXIS2_PLACEMENT_3D('',#455,#366,#367);
#308=AXIS2_PLACEMENT_3D('',#457,#368,#369);
#309=AXIS2_PLACEMENT_3D('',#458,#370,#371);
#310=AXIS2_PLACEMENT_3D('',#460,#372,#373);
#311=AXIS2_PLACEMENT_3D('',#461,#374,#375);
#312=AXIS2_PLACEMENT_3D('',#463,#376,#377);
#313=AXIS2_PLACEMENT_3D('',#464,#378,#379);
#314=AXIS2_PLACEMENT_3D('',#466,#380,#381);
#315=AXIS2_PLACEMENT_3D('',#467,#382,#383);
#316=AXIS2_PLACEMENT_3D('',#469,#384,#385);
#317=AXIS2_PLACEMENT_3D('',#470,#386,#387);
#318=AXIS2_PLACEMENT_3D('',#475,#390,#391);
#319=AXIS2_PLACEMENT_3D('',#476,#392,#393);
#320=AXIS2_PLACEMENT_3D('',#477,#394,#395);
#321=AXIS2_PLACEMENT_3D('',#478,#396,#397);
#322=AXIS2_PLACEMENT_3D('',#479,#398,#399);
#323=AXIS2_PLACEMENT_3D('',#480,#400,#401);
#324=AXIS2_PLACEMENT_3D('',#483,#402,#403);
#325=AXIS2_PLACEMENT_3D('',#484,#404,#405);
#326=AXIS2_PLACEMENT_3D('',#487,#407,#408);
#327=AXIS2_PLACEMENT_3D('',#490,#410,#411);
#328=AXIS2_PLACEMENT_3D('',#491,#412,#413);
#329=AXIS2_PLACEMENT_3D('',#492,#414,#415);
#330=AXIS2_PLACEMENT_3D('',#497,#418,#419);
#331=AXIS2_PLACEMENT_3D('',#498,#420,#421);
#332=AXIS2_PLACEMENT_3D('',#499,#422,#423);
#333=AXIS2_PLACEMENT_3D('',#500,#424,#425);
#334=AXIS2_PLACEMENT_3D('',#501,#426,#427);
#335=AXIS2_PLACEMENT_3D('',#502,#428,#429);
#336=AXIS2_PLACEMENT_3D('',#503,#430,#431);
#337=AXIS2_PLACEMENT_3D('',#504,#432,#433);
#338=DIRECTION('',(0.,0.,1.));
#339=DIRECTION('',(1.,0.,0.));
#340=DIRECTION('',(0.,0.,1.));
#341=DIRECTION('',(1.,0.,0.));
#342=DIRECTION('',(0.,0.,1.));
#343=DIRECTION('',(1.,0.,0.));
#344=DIRECTION('',(0.,0.,1.));
#345=DIRECTION('',(1.,0.,0.));
#346=DIRECTION('',(0.,0.,1.));
#347=DIRECTION('',(-1.,0.,0.));
#348=DIRECTION('',(0.,0.,-1.));
#349=DIRECTION('',(-1.,0.,0.));
#350=DIRECTION('',(0.,0.,-1.));
#351=DIRECTION('',(-1.,0.,0.));
#352=DIRECTION('',(0.,0.,-1.));
#353=DIRECTION('',(0.,1.,0.));
#354=DIRECTION('',(0.,0.,1.));
#355=DIRECTION('',(-1.,0.,0.));
#356=DIRECTION('',(0.,0.,-1.));
#357=DIRECTION('',(0.,1.,0.));
#358=DIRECTION('',(0.,0.,-1.));
#359=DIRECTION('',(0.,-1.,0.));
#360=DIRECTION('',(0.,0.,-1.));
#361=DIRECTION('',(0.,1.,0.));
#362=DIRECTION('',(0.,0.,-1.));
#363=DIRECTION('',(0.94673966854674,-0.322000000000014,0.));
#364=DIRECTION('',(0.,0.,-1.));
#365=DIRECTION('',(0.,1.,0.));
#366=DIRECTION('',(0.,0.,-1.));
#367=DIRECTION('',(0.933577982075045,-0.358374317417817,0.));
#368=DIRECTION('',(0.,0.,-1.));
#369=DIRECTION('',(0.,1.,-4.14962578634445E-17));
#370=DIRECTION('',(0.,0.,-1.));
#371=DIRECTION('',(0.930813791005031,-0.365493757094212,0.));
#372=DIRECTION('',(0.,0.,-1.));
#373=DIRECTION('',(6.47937227024391E-5,-0.999999997900887,0.));
#374=DIRECTION('',(0.,0.,-1.));
#375=DIRECTION('',(0.930813791005031,-0.365493757094212,0.));
#376=DIRECTION('',(0.,0.,-1.));
#377=DIRECTION('',(0.,1.,0.));
#378=DIRECTION('',(0.,0.,-1.));
#379=DIRECTION('',(0.933577982075817,-0.358374317415807,0.));
#380=DIRECTION('',(0.,0.,-1.));
#381=DIRECTION('',(6.44853621066812E-5,-0.999999997920819,0.));
#382=DIRECTION('',(0.,0.,-1.));
#383=DIRECTION('',(0.94673966854674,-0.322000000000014,0.));
#384=DIRECTION('',(0.,0.,1.));
#385=DIRECTION('',(0.,-1.,3.06281903277794E-17));
#386=DIRECTION('',(0.,0.,-1.));
#387=DIRECTION('',(0.,1.,0.));
#388=DIRECTION('',(3.82953160747093E-13,-0.144306116415197,0.989533094325381));
#389=DIRECTION('',(-3.82951926350393E-13,0.144306116415197,0.989533094325381));
#390=DIRECTION('',(0.,0.,1.));
#391=DIRECTION('',(-1.,0.,0.));
#392=DIRECTION('',(0.,0.,-1.));
#393=DIRECTION('',(0.,1.,2.84835142979602E-16));
#394=DIRECTION('',(0.,0.,1.));
#395=DIRECTION('',(-1.,0.,0.));
#396=DIRECTION('',(0.,0.,-1.));
#397=DIRECTION('',(0.,1.,0.));
#398=DIRECTION('',(0.,0.,-1.));
#399=DIRECTION('',(0.,1.,2.84835142979602E-16));
#400=DIRECTION('',(0.,0.,1.));
#401=DIRECTION('',(-1.,0.,0.));
#402=DIRECTION('',(0.,0.,1.));
#403=DIRECTION('',(-1.,0.,0.));
#404=DIRECTION('',(0.,0.,-1.));
#405=DIRECTION('',(0.,1.,0.));
#406=DIRECTION('',(-3.08690311042109E-14,-0.0784590957278522,0.996917333733127));
#407=DIRECTION('',(0.,0.,1.));
#408=DIRECTION('',(0.,1.,0.));
#409=DIRECTION('',(3.08764123952509E-14,0.0784590957278522,0.996917333733127));
#410=DIRECTION('',(0.,0.,1.));
#411=DIRECTION('',(0.,-1.,-3.17250194943313E-16));
#412=DIRECTION('',(0.,0.,-1.));
#413=DIRECTION('',(0.,1.,0.));
#414=DIRECTION('',(0.,0.,1.));
#415=DIRECTION('',(0.,-1.,-3.17250194943313E-16));
#416=DIRECTION('',(-8.326859058355E-14,0.,1.));
#417=DIRECTION('',(8.321426182981E-14,0.,1.));
#418=DIRECTION('',(0.,0.,-1.));
#419=DIRECTION('',(0.,1.,0.));
#420=DIRECTION('',(0.,0.,-1.));
#421=DIRECTION('',(0.,1.,0.));
#422=DIRECTION('',(-1.,-1.589804676794E-13,0.));
#423=DIRECTION('',(-1.02551917678732E-26,6.47630097698008E-14,1.));
#424=DIRECTION('',(1.,1.591088372166E-13,0.));
#425=DIRECTION('',(1.02551917678732E-26,-6.47630097698008E-14,1.));
#426=DIRECTION('',(0.,0.,-1.));
#427=DIRECTION('',(0.0110965778941495,-0.999938431084154,0.));
#428=DIRECTION('',(0.,0.,-1.));
#429=DIRECTION('',(0.,-1.,0.));
#430=DIRECTION('',(0.,0.,-1.));
#431=DIRECTION('',(-0.0110965778941495,0.999938431084154,0.));
#432=DIRECTION('',(0.,0.,-1.));
#433=DIRECTION('',(0.,1.,0.));
#434=CARTESIAN_POINT('',(0.,0.,0.));
#435=CARTESIAN_POINT('',(0.,0.,0.));
#436=CARTESIAN_POINT('',(0.,0.,-80.));
#437=CARTESIAN_POINT('',(0.,0.,0.));
#438=CARTESIAN_POINT('',(0.,0.,-3.2));
#439=CARTESIAN_POINT('',(-25.,0.,-3.2));
#440=CARTESIAN_POINT('',(0.,0.,-3.2));
#441=CARTESIAN_POINT('',(0.,16.3416641016637,-3.2));
#442=CARTESIAN_POINT('',(-1.24149938345436E-11,-16.3416641016637,-3.2));
#443=CARTESIAN_POINT('',(0.,0.,-3.2));
#444=CARTESIAN_POINT('',(0.,0.,-3.2));
#445=CARTESIAN_POINT('',(0.,0.,-19.1));
#446=CARTESIAN_POINT('',(-25.,0.,-19.1));
#447=CARTESIAN_POINT('',(0.,0.,-19.1));
#448=CARTESIAN_POINT('',(0.,13.,-19.1));
#449=CARTESIAN_POINT('',(0.,-13.,-19.1));
#450=CARTESIAN_POINT('',(0.,0.,-19.1));
#451=CARTESIAN_POINT('',(0.,0.,-19.1));
#452=CARTESIAN_POINT('',(0.,0.,-14.477499074759));
#453=CARTESIAN_POINT('',(23.6684917136685,-8.05000000000034,-14.477499074759));
#454=CARTESIAN_POINT('',(0.,0.,51.145));
#455=CARTESIAN_POINT('',(0.,0.,-13.012499984975));
#456=CARTESIAN_POINT('',(20.9705394344476,-8.04999999999944,-13.012499984975));
#457=CARTESIAN_POINT('',(0.,0.,-13.744999529867));
#458=CARTESIAN_POINT('',(0.,0.,-12.51641567691));
#459=CARTESIAN_POINT('',(20.5011737468858,-8.05000000000002,-12.51641567691));
#460=CARTESIAN_POINT('',(0.,0.,-12.51641567691));
#461=CARTESIAN_POINT('',(0.,0.,-9.683584323034));
#462=CARTESIAN_POINT('',(20.5011737468858,-8.05000000000002,-9.683584323034));
#463=CARTESIAN_POINT('',(0.,0.,51.145));
#464=CARTESIAN_POINT('',(0.,0.,-9.187500014953));
#465=CARTESIAN_POINT('',(20.9705394345863,-8.05000000000086,-9.187500014953));
#466=CARTESIAN_POINT('',(0.,0.,-9.683584323034));
#467=CARTESIAN_POINT('',(0.,0.,-7.72250092524));
#468=CARTESIAN_POINT('',(23.6684917136685,-8.05000000000034,-7.72250092524));
#469=CARTESIAN_POINT('',(0.,0.,-8.4550004701));
#470=CARTESIAN_POINT('',(0.,0.,51.145));
#471=CARTESIAN_POINT('',(0.,16.04999903812,-1.2));
#472=CARTESIAN_POINT('',(1.89631908060644E-11,8.90420498141354,47.8));
#473=CARTESIAN_POINT('',(0.,-16.04999903812,-1.2));
#474=CARTESIAN_POINT('',(-1.89631296808341E-11,-8.90420498141354,47.8));
#475=CARTESIAN_POINT('',(0.,0.,47.8));
#476=CARTESIAN_POINT('',(0.,0.,23.04329183492));
#477=CARTESIAN_POINT('',(0.,0.,47.8));
#478=CARTESIAN_POINT('',(0.,0.,47.8));
#479=CARTESIAN_POINT('',(0.,0.,23.04329183492));
#480=CARTESIAN_POINT('',(0.,0.,-80.));
#481=CARTESIAN_POINT('',(9.82378045082567E-13,-7.50000000000024,-80.));
#482=CARTESIAN_POINT('',(-9.82613240599921E-13,7.50000000000024,-80.));
#483=CARTESIAN_POINT('',(0.,0.,-80.));
#484=CARTESIAN_POINT('',(0.,0.,-80.));
#485=CARTESIAN_POINT('',(9.538430062432E-13,-7.572526842075,-79.07845909573));
#486=CARTESIAN_POINT('',(0.,-10.,-48.23448815956));
#487=CARTESIAN_POINT('',(0.,0.,-48.23448815956));
#488=CARTESIAN_POINT('',(0.,10.,-48.23448815956));
#489=CARTESIAN_POINT('',(-9.540713785653E-13,7.572526842075,-79.07845909573));
#490=CARTESIAN_POINT('',(0.,0.,-63.65647362765));
#491=CARTESIAN_POINT('',(0.,0.,-48.23448815956));
#492=CARTESIAN_POINT('',(0.,0.,-63.65647362765));
#493=CARTESIAN_POINT('',(0.,-10.,-48.23448815956));
#494=CARTESIAN_POINT('',(0.,-10.,-22.1));
#495=CARTESIAN_POINT('',(0.,10.,-48.23448815956));
#496=CARTESIAN_POINT('',(0.,10.,-22.1));
#497=CARTESIAN_POINT('',(0.,0.,-22.1));
#498=CARTESIAN_POINT('',(0.,0.,-16.055));
#499=CARTESIAN_POINT('',(2.066763427067E-12,-13.,-22.1));
#500=CARTESIAN_POINT('',(-2.068401006028E-12,13.,-22.1));
#501=CARTESIAN_POINT('',(0.,0.,-22.1));
#502=CARTESIAN_POINT('',(0.,0.,-22.1));
#503=CARTESIAN_POINT('',(0.,0.,-22.1));
#504=CARTESIAN_POINT('',(0.,0.,-16.055));
#505=MECHANICAL_DESIGN_GEOMETRIC_PRESENTATION_REPRESENTATION('',(#277,#278,
#279,#280),#506);
#506=(
GEOMETRIC_REPRESENTATION_CONTEXT(3)
GLOBAL_UNCERTAINTY_ASSIGNED_CONTEXT((#507))
GLOBAL_UNIT_ASSIGNED_CONTEXT((#513,#509,#508))
REPRESENTATION_CONTEXT('69871.30AD-SC.05','TOP_LEVEL_ASSEMBLY_PART')
);
#507=UNCERTAINTY_MEASURE_WITH_UNIT(LENGTH_MEASURE(2.E-5),#513,
'DISTANCE_ACCURACY_VALUE','Maximum Tolerance applied to model');
#508=(
NAMED_UNIT(*)
SI_UNIT($,.STERADIAN.)
SOLID_ANGLE_UNIT()
);
#509=(
CONVERSION_BASED_UNIT('DEGREE',#511)
NAMED_UNIT(#510)
PLANE_ANGLE_UNIT()
);
#510=DIMENSIONAL_EXPONENTS(0.,0.,0.,0.,0.,0.,0.);
#511=PLANE_ANGLE_MEASURE_WITH_UNIT(PLANE_ANGLE_MEASURE(0.0174532925),#512);
#512=(
NAMED_UNIT(*)
PLANE_ANGLE_UNIT()
SI_UNIT($,.RADIAN.)
);
#513=(
LENGTH_UNIT()
NAMED_UNIT(*)
SI_UNIT(.MILLI.,.METRE.)
);
ENDSEC;
END-ISO-10303-21;
