ISO-10303-21;
HEADER;
/* Generated by software containing ST-Developer
 * from STEP Tools, Inc. (www.steptools.com) 
 */
/* OPTION: using custom schema-name function */

FILE_DESCRIPTION(
/* description */ (''),
/* implementation_level */ '2;1');

FILE_NAME(
/* name */ '69871.30AD-SC.06.080.stp',
/* time_stamp */ '2024-06-24T06:40:29+02:00',
/* author */ (''),
/* organization */ (''),
/* preprocessor_version */ 'ST-DEVELOPER v16.7',
/* originating_system */ 'SIEMENS PLM Software NX 12.0',
/* authorisation */ '');

FILE_SCHEMA (('AUTOMOTIVE_DESIGN { 1 0 10303 214 3 1 1 1 }'));
ENDSEC;

DATA;
#10=CONSTRUCTIVE_GEOMETRY_REPRESENTATION_RELATIONSHIP(
'supplemental geometry','',#32,#11);
#11=CONSTRUCTIVE_GEOMETRY_REPRESENTATION('supplemental geometry',(#294,
#295,#296),#506);
#12=PROPERTY_DEFINITION_REPRESENTATION(#16,#14);
#13=PROPERTY_DEFINITION_REPRESENTATION(#17,#15);
#14=REPRESENTATION('',(#18),#506);
#15=REPRESENTATION('',(#19),#506);
#16=PROPERTY_DEFINITION('pmi validation property','',#23);
#17=PROPERTY_DEFINITION('pmi validation property','',#23);
#18=VALUE_REPRESENTATION_ITEM('number of annotations',COUNT_MEASURE(0.));
#19=VALUE_REPRESENTATION_ITEM('number of views',COUNT_MEASURE(0.));
#20=SHAPE_REPRESENTATION_RELATIONSHIP('None',
'relationship between pf6639C8F234kgqs-None and pf6639C8F234kgqs-None',
#32,#21);
#21=ADVANCED_BREP_SHAPE_REPRESENTATION('pf6639C8F234kgqs-None',(#38),#506);
#22=SHAPE_DEFINITION_REPRESENTATION(#23,#32);
#23=PRODUCT_DEFINITION_SHAPE('','',#24);
#24=PRODUCT_DEFINITION(' ','',#26,#25);
#25=PRODUCT_DEFINITION_CONTEXT('part definition',#31,'design');
#26=PRODUCT_DEFINITION_FORMATION_WITH_SPECIFIED_SOURCE(' ',' ',#28,
 .NOT_KNOWN.);
#27=PRODUCT_RELATED_PRODUCT_CATEGORY('part','',(#28));
#28=PRODUCT('pf6639C8F234kgqs','pf6639C8F234kgqs',' ',(#29));
#29=PRODUCT_CONTEXT(' ',#31,'mechanical');
#30=APPLICATION_PROTOCOL_DEFINITION('international standard',
'automotive_design',2010,#31);
#31=APPLICATION_CONTEXT(
'core data for automotive mechanical design processes');
#32=SHAPE_REPRESENTATION('pf6639C8F234kgqs-None',(#293),#506);
#33=SURFACE_STYLE_USAGE(.BOTH.,#34);
#34=SURFACE_SIDE_STYLE('',(#35));
#35=SURFACE_STYLE_FILL_AREA(#36);
#36=FILL_AREA_STYLE('',(#37));
#37=FILL_AREA_STYLE_COLOUR('',#289);
#38=MANIFOLD_SOLID_BREP('',#39);
#39=CLOSED_SHELL('',(#77,#78,#79,#80,#81,#82,#83,#84,#85,#86,#87,#88,#89,
#90,#91,#92,#93,#94,#95));
#40=CONICAL_SURFACE('',#316,12.03626342104,4.5);
#41=CONICAL_SURFACE('',#318,12.03626342104,4.5);
#42=CONICAL_SURFACE('',#323,23.73127357173,60.);
#43=CONICAL_SURFACE('',#331,23.73127357179,60.);
#44=CONICAL_SURFACE('',#336,12.51453841141,8.2971);
#45=CONICAL_SURFACE('',#337,12.51453841141,8.2971);
#46=CYLINDRICAL_SURFACE('',#310,13.5);
#47=CYLINDRICAL_SURFACE('',#313,13.5);
#48=CYLINDRICAL_SURFACE('',#321,25.);
#49=CYLINDRICAL_SURFACE('',#327,22.025);
#50=CYLINDRICAL_SURFACE('',#332,25.);
#51=LINE('',#458,#57);
#52=LINE('',#462,#58);
#53=LINE('',#468,#59);
#54=LINE('',#470,#60);
#55=LINE('',#501,#61);
#56=LINE('',#502,#62);
#57=VECTOR('',#370,1.);
#58=VECTOR('',#373,1.);
#59=VECTOR('',#384,1.);
#60=VECTOR('',#385,1.);
#61=VECTOR('',#428,1.);
#62=VECTOR('',#429,1.);
#63=TOROIDAL_SURFACE('',#308,16.5,3.);
#64=TOROIDAL_SURFACE('',#314,16.5,3.);
#65=TOROIDAL_SURFACE('',#325,22.525,0.5);
#66=TOROIDAL_SURFACE('',#329,22.525,0.5);
#67=FACE_OUTER_BOUND('',#122,.T.);
#68=FACE_OUTER_BOUND('',#123,.T.);
#69=FACE_OUTER_BOUND('',#124,.T.);
#70=FACE_OUTER_BOUND('',#125,.T.);
#71=FACE_OUTER_BOUND('',#126,.T.);
#72=FACE_OUTER_BOUND('',#127,.T.);
#73=FACE_OUTER_BOUND('',#128,.T.);
#74=FACE_OUTER_BOUND('',#143,.T.);
#75=FACE_OUTER_BOUND('',#144,.T.);
#76=FACE_OUTER_BOUND('',#145,.T.);
#77=ADVANCED_FACE('',(#100,#101),#96,.F.);
#78=ADVANCED_FACE('',(#102,#103),#97,.T.);
#79=ADVANCED_FACE('',(#67),#63,.F.);
#80=ADVANCED_FACE('',(#68),#46,.T.);
#81=ADVANCED_FACE('',(#69),#47,.T.);
#82=ADVANCED_FACE('',(#70),#64,.F.);
#83=ADVANCED_FACE('',(#71),#40,.T.);
#84=ADVANCED_FACE('',(#72),#41,.T.);
#85=ADVANCED_FACE('',(#73),#98,.T.);
#86=ADVANCED_FACE('',(#104,#105),#48,.T.);
#87=ADVANCED_FACE('',(#106,#107),#42,.T.);
#88=ADVANCED_FACE('',(#108,#109),#65,.F.);
#89=ADVANCED_FACE('',(#110,#111),#49,.T.);
#90=ADVANCED_FACE('',(#112,#113),#66,.F.);
#91=ADVANCED_FACE('',(#114,#115),#43,.T.);
#92=ADVANCED_FACE('',(#116,#117),#50,.T.);
#93=ADVANCED_FACE('',(#74),#99,.F.);
#94=ADVANCED_FACE('',(#75),#44,.T.);
#95=ADVANCED_FACE('',(#76),#45,.T.);
#96=PLANE('',#300);
#97=PLANE('',#304);
#98=PLANE('',#319);
#99=PLANE('',#335);
#100=FACE_BOUND('',#118,.T.);
#101=FACE_BOUND('',#119,.T.);
#102=FACE_BOUND('',#120,.T.);
#103=FACE_BOUND('',#121,.T.);
#104=FACE_BOUND('',#129,.T.);
#105=FACE_BOUND('',#130,.T.);
#106=FACE_BOUND('',#131,.T.);
#107=FACE_BOUND('',#132,.T.);
#108=FACE_BOUND('',#133,.T.);
#109=FACE_BOUND('',#134,.T.);
#110=FACE_BOUND('',#135,.T.);
#111=FACE_BOUND('',#136,.T.);
#112=FACE_BOUND('',#137,.T.);
#113=FACE_BOUND('',#138,.T.);
#114=FACE_BOUND('',#139,.T.);
#115=FACE_BOUND('',#140,.T.);
#116=FACE_BOUND('',#141,.T.);
#117=FACE_BOUND('',#142,.T.);
#118=EDGE_LOOP('',(#146));
#119=EDGE_LOOP('',(#147,#148));
#120=EDGE_LOOP('',(#149));
#121=EDGE_LOOP('',(#150,#151));
#122=EDGE_LOOP('',(#152,#153,#154,#155));
#123=EDGE_LOOP('',(#156,#157,#158,#159));
#124=EDGE_LOOP('',(#160,#161,#162,#163));
#125=EDGE_LOOP('',(#164,#165,#166,#167));
#126=EDGE_LOOP('',(#168,#169,#170,#171));
#127=EDGE_LOOP('',(#172,#173,#174,#175));
#128=EDGE_LOOP('',(#176,#177));
#129=EDGE_LOOP('',(#178));
#130=EDGE_LOOP('',(#179));
#131=EDGE_LOOP('',(#180));
#132=EDGE_LOOP('',(#181));
#133=EDGE_LOOP('',(#182));
#134=EDGE_LOOP('',(#183));
#135=EDGE_LOOP('',(#184));
#136=EDGE_LOOP('',(#185));
#137=EDGE_LOOP('',(#186));
#138=EDGE_LOOP('',(#187));
#139=EDGE_LOOP('',(#188));
#140=EDGE_LOOP('',(#189));
#141=EDGE_LOOP('',(#190));
#142=EDGE_LOOP('',(#191));
#143=EDGE_LOOP('',(#192,#193));
#144=EDGE_LOOP('',(#194,#195,#196,#197));
#145=EDGE_LOOP('',(#198,#199,#200,#201));
#146=ORIENTED_EDGE('',*,*,#222,.T.);
#147=ORIENTED_EDGE('',*,*,#223,.T.);
#148=ORIENTED_EDGE('',*,*,#224,.T.);
#149=ORIENTED_EDGE('',*,*,#225,.F.);
#150=ORIENTED_EDGE('',*,*,#226,.F.);
#151=ORIENTED_EDGE('',*,*,#227,.F.);
#152=ORIENTED_EDGE('',*,*,#228,.F.);
#153=ORIENTED_EDGE('',*,*,#226,.T.);
#154=ORIENTED_EDGE('',*,*,#229,.T.);
#155=ORIENTED_EDGE('',*,*,#230,.F.);
#156=ORIENTED_EDGE('',*,*,#231,.F.);
#157=ORIENTED_EDGE('',*,*,#232,.T.);
#158=ORIENTED_EDGE('',*,*,#233,.T.);
#159=ORIENTED_EDGE('',*,*,#230,.T.);
#160=ORIENTED_EDGE('',*,*,#233,.F.);
#161=ORIENTED_EDGE('',*,*,#234,.F.);
#162=ORIENTED_EDGE('',*,*,#231,.T.);
#163=ORIENTED_EDGE('',*,*,#235,.T.);
#164=ORIENTED_EDGE('',*,*,#228,.T.);
#165=ORIENTED_EDGE('',*,*,#235,.F.);
#166=ORIENTED_EDGE('',*,*,#229,.F.);
#167=ORIENTED_EDGE('',*,*,#227,.T.);
#168=ORIENTED_EDGE('',*,*,#236,.T.);
#169=ORIENTED_EDGE('',*,*,#234,.T.);
#170=ORIENTED_EDGE('',*,*,#237,.F.);
#171=ORIENTED_EDGE('',*,*,#238,.T.);
#172=ORIENTED_EDGE('',*,*,#237,.T.);
#173=ORIENTED_EDGE('',*,*,#232,.F.);
#174=ORIENTED_EDGE('',*,*,#236,.F.);
#175=ORIENTED_EDGE('',*,*,#239,.T.);
#176=ORIENTED_EDGE('',*,*,#238,.F.);
#177=ORIENTED_EDGE('',*,*,#239,.F.);
#178=ORIENTED_EDGE('',*,*,#225,.T.);
#179=ORIENTED_EDGE('',*,*,#240,.T.);
#180=ORIENTED_EDGE('',*,*,#240,.F.);
#181=ORIENTED_EDGE('',*,*,#241,.T.);
#182=ORIENTED_EDGE('',*,*,#241,.F.);
#183=ORIENTED_EDGE('',*,*,#242,.T.);
#184=ORIENTED_EDGE('',*,*,#242,.F.);
#185=ORIENTED_EDGE('',*,*,#243,.T.);
#186=ORIENTED_EDGE('',*,*,#243,.F.);
#187=ORIENTED_EDGE('',*,*,#244,.T.);
#188=ORIENTED_EDGE('',*,*,#244,.F.);
#189=ORIENTED_EDGE('',*,*,#245,.T.);
#190=ORIENTED_EDGE('',*,*,#245,.F.);
#191=ORIENTED_EDGE('',*,*,#222,.F.);
#192=ORIENTED_EDGE('',*,*,#246,.T.);
#193=ORIENTED_EDGE('',*,*,#247,.T.);
#194=ORIENTED_EDGE('',*,*,#248,.F.);
#195=ORIENTED_EDGE('',*,*,#223,.F.);
#196=ORIENTED_EDGE('',*,*,#249,.T.);
#197=ORIENTED_EDGE('',*,*,#246,.F.);
#198=ORIENTED_EDGE('',*,*,#249,.F.);
#199=ORIENTED_EDGE('',*,*,#224,.F.);
#200=ORIENTED_EDGE('',*,*,#248,.T.);
#201=ORIENTED_EDGE('',*,*,#247,.F.);
#202=VERTEX_POINT('',#439);
#203=VERTEX_POINT('',#441);
#204=VERTEX_POINT('',#442);
#205=VERTEX_POINT('',#446);
#206=VERTEX_POINT('',#448);
#207=VERTEX_POINT('',#449);
#208=VERTEX_POINT('',#453);
#209=VERTEX_POINT('',#455);
#210=VERTEX_POINT('',#459);
#211=VERTEX_POINT('',#461);
#212=VERTEX_POINT('',#469);
#213=VERTEX_POINT('',#471);
#214=VERTEX_POINT('',#478);
#215=VERTEX_POINT('',#481);
#216=VERTEX_POINT('',#484);
#217=VERTEX_POINT('',#487);
#218=VERTEX_POINT('',#490);
#219=VERTEX_POINT('',#493);
#220=VERTEX_POINT('',#497);
#221=VERTEX_POINT('',#498);
#222=EDGE_CURVE('',#202,#202,#250,.T.);
#223=EDGE_CURVE('',#203,#204,#251,.T.);
#224=EDGE_CURVE('',#204,#203,#252,.T.);
#225=EDGE_CURVE('',#205,#205,#253,.T.);
#226=EDGE_CURVE('',#206,#207,#254,.T.);
#227=EDGE_CURVE('',#207,#206,#255,.T.);
#228=EDGE_CURVE('',#206,#208,#256,.T.);
#229=EDGE_CURVE('',#207,#209,#257,.T.);
#230=EDGE_CURVE('',#208,#209,#258,.T.);
#231=EDGE_CURVE('',#210,#209,#51,.T.);
#232=EDGE_CURVE('',#210,#211,#259,.T.);
#233=EDGE_CURVE('',#211,#208,#52,.T.);
#234=EDGE_CURVE('',#210,#211,#260,.T.);
#235=EDGE_CURVE('',#209,#208,#261,.T.);
#236=EDGE_CURVE('',#212,#210,#53,.T.);
#237=EDGE_CURVE('',#213,#211,#54,.T.);
#238=EDGE_CURVE('',#213,#212,#262,.T.);
#239=EDGE_CURVE('',#212,#213,#263,.T.);
#240=EDGE_CURVE('',#214,#214,#264,.T.);
#241=EDGE_CURVE('',#215,#215,#265,.T.);
#242=EDGE_CURVE('',#216,#216,#266,.T.);
#243=EDGE_CURVE('',#217,#217,#267,.T.);
#244=EDGE_CURVE('',#218,#218,#268,.T.);
#245=EDGE_CURVE('',#219,#219,#269,.T.);
#246=EDGE_CURVE('',#220,#221,#270,.T.);
#247=EDGE_CURVE('',#221,#220,#271,.T.);
#248=EDGE_CURVE('',#204,#220,#55,.T.);
#249=EDGE_CURVE('',#203,#221,#56,.T.);
#250=CIRCLE('',#297,25.);
#251=CIRCLE('',#298,16.3416641016637);
#252=CIRCLE('',#299,16.3416641016637);
#253=CIRCLE('',#301,25.);
#254=CIRCLE('',#302,16.5);
#255=CIRCLE('',#303,16.5);
#256=CIRCLE('',#305,3.);
#257=CIRCLE('',#306,3.);
#258=CIRCLE('',#307,13.5);
#259=CIRCLE('',#309,13.5);
#260=CIRCLE('',#311,13.5);
#261=CIRCLE('',#312,13.5);
#262=CIRCLE('',#315,10.5000000000024);
#263=CIRCLE('',#317,10.5000000000024);
#264=CIRCLE('',#320,25.);
#265=CIRCLE('',#322,22.46254714345);
#266=CIRCLE('',#324,22.025);
#267=CIRCLE('',#326,22.025);
#268=CIRCLE('',#328,22.46254714358);
#269=CIRCLE('',#330,25.);
#270=CIRCLE('',#333,8.90420498141631);
#271=CIRCLE('',#334,8.90420498141631);
#272=INVISIBILITY((#273,#274,#275));
#273=PRESENTATION_LAYER_ASSIGNMENT('100','Layer 100',(#294));
#274=PRESENTATION_LAYER_ASSIGNMENT('101','Layer 101',(#295));
#275=PRESENTATION_LAYER_ASSIGNMENT('102','Layer 102',(#296));
#276=PRESENTATION_LAYER_ASSIGNMENT('98','Layer 98',(#38));
#277=STYLED_ITEM('',(#281),#294);
#278=STYLED_ITEM('',(#282),#295);
#279=STYLED_ITEM('',(#283),#296);
#280=STYLED_ITEM('',(#284),#38);
#281=PRESENTATION_STYLE_ASSIGNMENT((#285));
#282=PRESENTATION_STYLE_ASSIGNMENT((#286));
#283=PRESENTATION_STYLE_ASSIGNMENT((#287));
#284=PRESENTATION_STYLE_ASSIGNMENT((#33));
#285=CURVE_STYLE('',#290,POSITIVE_LENGTH_MEASURE(0.7),#288);
#286=CURVE_STYLE('',#291,POSITIVE_LENGTH_MEASURE(0.7),#288);
#287=CURVE_STYLE('',#292,POSITIVE_LENGTH_MEASURE(0.7),#288);
#288=COLOUR_RGB('Medium Maroon',0.6,0.4,0.4);
#289=COLOUR_RGB('Medium Gray',0.490196078431373,0.490196078431373,0.490196078431373);
#290=DRAUGHTING_PRE_DEFINED_CURVE_FONT('continuous');
#291=DRAUGHTING_PRE_DEFINED_CURVE_FONT('continuous');
#292=DRAUGHTING_PRE_DEFINED_CURVE_FONT('continuous');
#293=AXIS2_PLACEMENT_3D('',#434,#338,#339);
#294=AXIS2_PLACEMENT_3D('PCS',#435,#340,#341);
#295=AXIS2_PLACEMENT_3D('CSW',#436,#342,#343);
#296=AXIS2_PLACEMENT_3D('MCS',#437,#344,#345);
#297=AXIS2_PLACEMENT_3D('',#438,#346,#347);
#298=AXIS2_PLACEMENT_3D('',#440,#348,#349);
#299=AXIS2_PLACEMENT_3D('',#443,#350,#351);
#300=AXIS2_PLACEMENT_3D('',#444,#352,#353);
#301=AXIS2_PLACEMENT_3D('',#445,#354,#355);
#302=AXIS2_PLACEMENT_3D('',#447,#356,#357);
#303=AXIS2_PLACEMENT_3D('',#450,#358,#359);
#304=AXIS2_PLACEMENT_3D('',#451,#360,#361);
#305=AXIS2_PLACEMENT_3D('',#452,#362,#363);
#306=AXIS2_PLACEMENT_3D('',#454,#364,#365);
#307=AXIS2_PLACEMENT_3D('',#456,#366,#367);
#308=AXIS2_PLACEMENT_3D('',#457,#368,#369);
#309=AXIS2_PLACEMENT_3D('',#460,#371,#372);
#310=AXIS2_PLACEMENT_3D('',#463,#374,#375);
#311=AXIS2_PLACEMENT_3D('',#464,#376,#377);
#312=AXIS2_PLACEMENT_3D('',#465,#378,#379);
#313=AXIS2_PLACEMENT_3D('',#466,#380,#381);
#314=AXIS2_PLACEMENT_3D('',#467,#382,#383);
#315=AXIS2_PLACEMENT_3D('',#472,#386,#387);
#316=AXIS2_PLACEMENT_3D('',#473,#388,#389);
#317=AXIS2_PLACEMENT_3D('',#474,#390,#391);
#318=AXIS2_PLACEMENT_3D('',#475,#392,#393);
#319=AXIS2_PLACEMENT_3D('',#476,#394,#395);
#320=AXIS2_PLACEMENT_3D('',#477,#396,#397);
#321=AXIS2_PLACEMENT_3D('',#479,#398,#399);
#322=AXIS2_PLACEMENT_3D('',#480,#400,#401);
#323=AXIS2_PLACEMENT_3D('',#482,#402,#403);
#324=AXIS2_PLACEMENT_3D('',#483,#404,#405);
#325=AXIS2_PLACEMENT_3D('',#485,#406,#407);
#326=AXIS2_PLACEMENT_3D('',#486,#408,#409);
#327=AXIS2_PLACEMENT_3D('',#488,#410,#411);
#328=AXIS2_PLACEMENT_3D('',#489,#412,#413);
#329=AXIS2_PLACEMENT_3D('',#491,#414,#415);
#330=AXIS2_PLACEMENT_3D('',#492,#416,#417);
#331=AXIS2_PLACEMENT_3D('',#494,#418,#419);
#332=AXIS2_PLACEMENT_3D('',#495,#420,#421);
#333=AXIS2_PLACEMENT_3D('',#496,#422,#423);
#334=AXIS2_PLACEMENT_3D('',#499,#424,#425);
#335=AXIS2_PLACEMENT_3D('',#500,#426,#427);
#336=AXIS2_PLACEMENT_3D('',#503,#430,#431);
#337=AXIS2_PLACEMENT_3D('',#504,#432,#433);
#338=DIRECTION('',(0.,0.,1.));
#339=DIRECTION('',(1.,0.,0.));
#340=DIRECTION('',(0.,0.,1.));
#341=DIRECTION('',(1.,0.,0.));
#342=DIRECTION('',(0.,0.,1.));
#343=DIRECTION('',(1.,0.,0.));
#344=DIRECTION('',(0.,0.,1.));
#345=DIRECTION('',(1.,0.,0.));
#346=DIRECTION('',(0.,0.,1.));
#347=DIRECTION('',(-1.,0.,0.));
#348=DIRECTION('',(0.,0.,-1.));
#349=DIRECTION('',(-1.,0.,0.));
#350=DIRECTION('',(0.,0.,-1.));
#351=DIRECTION('',(-1.,0.,0.));
#352=DIRECTION('',(0.,0.,-1.));
#353=DIRECTION('',(0.,1.,0.));
#354=DIRECTION('',(0.,0.,1.));
#355=DIRECTION('',(-1.,0.,0.));
#356=DIRECTION('',(0.,0.,-1.));
#357=DIRECTION('',(-0.987890831738927,0.155150586741304,0.));
#358=DIRECTION('',(0.,0.,-1.));
#359=DIRECTION('',(0.,1.,0.));
#360=DIRECTION('',(0.,0.,-1.));
#361=DIRECTION('',(0.,1.,0.));
#362=DIRECTION('',(-1.,-3.242718593643E-14,0.));
#363=DIRECTION('',(-6.57384087684177E-28,1.96601993944038E-14,1.));
#364=DIRECTION('',(1.,3.259892356056E-14,0.));
#365=DIRECTION('',(6.90253292068385E-28,-2.08166817117217E-14,1.));
#366=DIRECTION('',(0.,0.,-1.));
#367=DIRECTION('',(0.,-1.,0.));
#368=DIRECTION('',(0.,0.,-1.));
#369=DIRECTION('',(-0.00821976346203779,0.999966217173674,0.));
#370=DIRECTION('',(1.617313283798E-13,0.,1.));
#371=DIRECTION('',(0.,0.,1.));
#372=DIRECTION('',(0.,1.,0.));
#373=DIRECTION('',(-3.165457153476E-13,0.,1.));
#374=DIRECTION('',(0.,0.,-1.));
#375=DIRECTION('',(0.,1.,0.));
#376=DIRECTION('',(0.,0.,-1.));
#377=DIRECTION('',(0.,1.,0.));
#378=DIRECTION('',(0.,0.,-1.));
#379=DIRECTION('',(0.,1.,0.));
#380=DIRECTION('',(0.,0.,-1.));
#381=DIRECTION('',(0.,1.,0.));
#382=DIRECTION('',(0.,0.,-1.));
#383=DIRECTION('',(0.00821976346203779,-0.999966217173674,0.));
#384=DIRECTION('',(1.08279471182403E-14,0.0784590957278522,0.996917333733127));
#385=DIRECTION('',(-1.08191789229903E-14,-0.0784590957278522,0.996917333733127));
#386=DIRECTION('',(0.,0.,1.));
#387=DIRECTION('',(-1.,0.,0.));
#388=DIRECTION('',(0.,0.,1.));
#389=DIRECTION('',(0.,-1.,0.));
#390=DIRECTION('',(0.,0.,1.));
#391=DIRECTION('',(-1.,0.,0.));
#392=DIRECTION('',(0.,0.,1.));
#393=DIRECTION('',(0.,-1.,0.));
#394=DIRECTION('',(0.,0.,-1.));
#395=DIRECTION('',(0.,1.,0.));
#396=DIRECTION('',(0.,0.,-1.));
#397=DIRECTION('',(0.94673966854674,-0.322000000000014,0.));
#398=DIRECTION('',(0.,0.,-1.));
#399=DIRECTION('',(0.,1.,0.));
#400=DIRECTION('',(0.,0.,-1.));
#401=DIRECTION('',(0.933577982075045,-0.358374317417817,0.));
#402=DIRECTION('',(0.,0.,-1.));
#403=DIRECTION('',(0.,1.,-3.95202455842329E-17));
#404=DIRECTION('',(0.,0.,-1.));
#405=DIRECTION('',(0.930813791005031,-0.365493757094212,0.));
#406=DIRECTION('',(0.,0.,-1.));
#407=DIRECTION('',(6.47937227024391E-5,-0.999999997900887,0.));
#408=DIRECTION('',(0.,0.,-1.));
#409=DIRECTION('',(0.930813791005031,-0.365493757094212,0.));
#410=DIRECTION('',(0.,0.,-1.));
#411=DIRECTION('',(0.,1.,0.));
#412=DIRECTION('',(0.,0.,-1.));
#413=DIRECTION('',(0.933577982075817,-0.358374317415807,0.));
#414=DIRECTION('',(0.,0.,-1.));
#415=DIRECTION('',(6.44853621066812E-5,-0.999999997920819,0.));
#416=DIRECTION('',(0.,0.,-1.));
#417=DIRECTION('',(0.94673966854674,-0.322000000000014,0.));
#418=DIRECTION('',(0.,0.,1.));
#419=DIRECTION('',(0.,-1.,-3.06281903277794E-17));
#420=DIRECTION('',(0.,0.,-1.));
#421=DIRECTION('',(0.,1.,0.));
#422=DIRECTION('',(0.,0.,1.));
#423=DIRECTION('',(-1.,0.,0.));
#424=DIRECTION('',(0.,0.,1.));
#425=DIRECTION('',(-1.,0.,0.));
#426=DIRECTION('',(0.,0.,-1.));
#427=DIRECTION('',(0.,1.,0.));
#428=DIRECTION('',(-3.82951926350393E-13,0.144306116415197,0.989533094325381));
#429=DIRECTION('',(3.82953160747093E-13,-0.144306116415197,0.989533094325381));
#430=DIRECTION('',(0.,0.,-1.));
#431=DIRECTION('',(0.,1.,3.06745538593418E-16));
#432=DIRECTION('',(0.,0.,-1.));
#433=DIRECTION('',(0.,1.,3.06745538593418E-16));
#434=CARTESIAN_POINT('',(0.,0.,0.));
#435=CARTESIAN_POINT('',(0.,0.,0.));
#436=CARTESIAN_POINT('',(0.,0.,-80.));
#437=CARTESIAN_POINT('',(0.,0.,0.));
#438=CARTESIAN_POINT('',(0.,0.,-3.20000000000001));
#439=CARTESIAN_POINT('',(-25.,0.,-3.20000000000001));
#440=CARTESIAN_POINT('',(0.,0.,-3.20000000000001));
#441=CARTESIAN_POINT('',(0.,16.3416641016637,-3.20000000000001));
#442=CARTESIAN_POINT('',(-1.24149938345436E-11,-16.3416641016637,-3.20000000000001));
#443=CARTESIAN_POINT('',(0.,0.,-3.20000000000001));
#444=CARTESIAN_POINT('',(0.,0.,-3.20000000000001));
#445=CARTESIAN_POINT('',(0.,0.,-19.1));
#446=CARTESIAN_POINT('',(-25.,0.,-19.1));
#447=CARTESIAN_POINT('',(0.,0.,-19.1));
#448=CARTESIAN_POINT('',(0.,-16.5,-19.1));
#449=CARTESIAN_POINT('',(0.,16.5,-19.1));
#450=CARTESIAN_POINT('',(0.,0.,-19.1));
#451=CARTESIAN_POINT('',(0.,0.,-19.1));
#452=CARTESIAN_POINT('',(5.350442311425E-13,-16.5,-22.1));
#453=CARTESIAN_POINT('',(0.,-13.5,-22.1));
#454=CARTESIAN_POINT('',(-5.378752998553E-13,16.5,-22.1));
#455=CARTESIAN_POINT('',(0.,13.5,-22.1));
#456=CARTESIAN_POINT('',(0.,0.,-22.1));
#457=CARTESIAN_POINT('',(0.,0.,-22.1));
#458=CARTESIAN_POINT('',(0.,13.5,-41.88138579148));
#459=CARTESIAN_POINT('',(0.,13.5,-41.88138579148));
#460=CARTESIAN_POINT('',(0.,0.,-41.88138579148));
#461=CARTESIAN_POINT('',(0.,-13.5,-41.88138579148));
#462=CARTESIAN_POINT('',(0.,-13.5,-41.88138579148));
#463=CARTESIAN_POINT('',(0.,0.,-16.055));
#464=CARTESIAN_POINT('',(0.,0.,-41.88138579148));
#465=CARTESIAN_POINT('',(0.,0.,-22.1));
#466=CARTESIAN_POINT('',(0.,0.,-16.055));
#467=CARTESIAN_POINT('',(0.,0.,-22.1));
#468=CARTESIAN_POINT('',(-4.023601079342E-13,10.57252684207,-79.07845909573));
#469=CARTESIAN_POINT('',(-4.12369359294456E-13,10.4999999999952,-80.));
#470=CARTESIAN_POINT('',(4.020329482083E-13,-10.57252684207,-79.07845909573));
#471=CARTESIAN_POINT('',(4.12034094332238E-13,-10.4999999999952,-80.));
#472=CARTESIAN_POINT('',(0.,0.,-80.));
#473=CARTESIAN_POINT('',(0.,0.,-60.4799224436));
#474=CARTESIAN_POINT('',(0.,0.,-80.));
#475=CARTESIAN_POINT('',(0.,0.,-60.4799224436));
#476=CARTESIAN_POINT('',(0.,0.,-80.));
#477=CARTESIAN_POINT('',(0.,0.,-14.477499074759));
#478=CARTESIAN_POINT('',(23.6684917136685,-8.05000000000034,-14.477499074759));
#479=CARTESIAN_POINT('',(0.,0.,51.145));
#480=CARTESIAN_POINT('',(0.,0.,-13.012499984975));
#481=CARTESIAN_POINT('',(20.9705394344476,-8.04999999999944,-13.012499984975));
#482=CARTESIAN_POINT('',(0.,0.,-13.744999529867));
#483=CARTESIAN_POINT('',(0.,0.,-12.51641567691));
#484=CARTESIAN_POINT('',(20.5011737468858,-8.05000000000002,-12.51641567691));
#485=CARTESIAN_POINT('',(0.,0.,-12.51641567691));
#486=CARTESIAN_POINT('',(0.,0.,-9.68358432303401));
#487=CARTESIAN_POINT('',(20.5011737468858,-8.05000000000002,-9.68358432303401));
#488=CARTESIAN_POINT('',(0.,0.,51.145));
#489=CARTESIAN_POINT('',(0.,0.,-9.18750001495301));
#490=CARTESIAN_POINT('',(20.9705394345863,-8.05000000000086,-9.18750001495301));
#491=CARTESIAN_POINT('',(0.,0.,-9.68358432303401));
#492=CARTESIAN_POINT('',(0.,0.,-7.72250092524001));
#493=CARTESIAN_POINT('',(23.6684917136685,-8.05000000000034,-7.72250092524001));
#494=CARTESIAN_POINT('',(0.,0.,-8.45500047010001));
#495=CARTESIAN_POINT('',(0.,0.,51.145));
#496=CARTESIAN_POINT('',(0.,0.,47.8));
#497=CARTESIAN_POINT('',(-1.89631296808341E-11,-8.90420498141354,47.8));
#498=CARTESIAN_POINT('',(1.89631908060644E-11,8.90420498141354,47.8));
#499=CARTESIAN_POINT('',(0.,0.,47.8));
#500=CARTESIAN_POINT('',(0.,0.,47.8));
#501=CARTESIAN_POINT('',(0.,-16.04999903812,-1.20000000000001));
#502=CARTESIAN_POINT('',(0.,16.04999903812,-1.20000000000001));
#503=CARTESIAN_POINT('',(0.,0.,23.04329183492));
#504=CARTESIAN_POINT('',(0.,0.,23.04329183492));
#505=MECHANICAL_DESIGN_GEOMETRIC_PRESENTATION_REPRESENTATION('',(#277,#278,
#279,#280),#506);
#506=(
GEOMETRIC_REPRESENTATION_CONTEXT(3)
GLOBAL_UNCERTAINTY_ASSIGNED_CONTEXT((#507))
GLOBAL_UNIT_ASSIGNED_CONTEXT((#513,#509,#508))
REPRESENTATION_CONTEXT('69871.30AD-SC.06','TOP_LEVEL_ASSEMBLY_PART')
);
#507=UNCERTAINTY_MEASURE_WITH_UNIT(LENGTH_MEASURE(2.E-5),#513,
'DISTANCE_ACCURACY_VALUE','Maximum Tolerance applied to model');
#508=(
NAMED_UNIT(*)
SI_UNIT($,.STERADIAN.)
SOLID_ANGLE_UNIT()
);
#509=(
CONVERSION_BASED_UNIT('DEGREE',#511)
NAMED_UNIT(#510)
PLANE_ANGLE_UNIT()
);
#510=DIMENSIONAL_EXPONENTS(0.,0.,0.,0.,0.,0.,0.);
#511=PLANE_ANGLE_MEASURE_WITH_UNIT(PLANE_ANGLE_MEASURE(0.0174532925),#512);
#512=(
NAMED_UNIT(*)
PLANE_ANGLE_UNIT()
SI_UNIT($,.RADIAN.)
);
#513=(
LENGTH_UNIT()
NAMED_UNIT(*)
SI_UNIT(.MILLI.,.METRE.)
);
ENDSEC;
END-ISO-10303-21;
