ISO-10303-21;
HEADER;
/* Generated by software containing ST-Developer
 * from STEP Tools, Inc. (www.steptools.com) 
 */
/* OPTION: using custom schema-name function */

FILE_DESCRIPTION(
/* description */ (''),
/* implementation_level */ '2;1');

FILE_NAME(
/* name */ '69871.30AD-SC.10.080.stp',
/* time_stamp */ '2024-06-24T06:43:37+02:00',
/* author */ (''),
/* organization */ (''),
/* preprocessor_version */ 'ST-DEVELOPER v16.7',
/* originating_system */ 'SIEMENS PLM Software NX 12.0',
/* authorisation */ '');

FILE_SCHEMA (('AUTOMOTIVE_DESIGN { 1 0 10303 214 3 1 1 1 }'));
ENDSEC;

DATA;
#10=CONSTRUCTIVE_GEOMETRY_REPRESENTATION_RELATIONSHIP(
'supplemental geometry','',#32,#11);
#11=CONSTRUCTIVE_GEOMETRY_REPRESENTATION('supplemental geometry',(#291,
#292,#293),#500);
#12=PROPERTY_DEFINITION_REPRESENTATION(#16,#14);
#13=PROPERTY_DEFINITION_REPRESENTATION(#17,#15);
#14=REPRESENTATION('',(#18),#500);
#15=REPRESENTATION('',(#19),#500);
#16=PROPERTY_DEFINITION('pmi validation property','',#23);
#17=PROPERTY_DEFINITION('pmi validation property','',#23);
#18=VALUE_REPRESENTATION_ITEM('number of annotations',COUNT_MEASURE(0.));
#19=VALUE_REPRESENTATION_ITEM('number of views',COUNT_MEASURE(0.));
#20=SHAPE_REPRESENTATION_RELATIONSHIP('None',
'relationship between pf6639C8F234kgr8-None and pf6639C8F234kgr8-None',
#32,#21);
#21=ADVANCED_BREP_SHAPE_REPRESENTATION('pf6639C8F234kgr8-None',(#38),#500);
#22=SHAPE_DEFINITION_REPRESENTATION(#23,#32);
#23=PRODUCT_DEFINITION_SHAPE('','',#24);
#24=PRODUCT_DEFINITION(' ','',#26,#25);
#25=PRODUCT_DEFINITION_CONTEXT('part definition',#31,'design');
#26=PRODUCT_DEFINITION_FORMATION_WITH_SPECIFIED_SOURCE(' ',' ',#28,
 .NOT_KNOWN.);
#27=PRODUCT_RELATED_PRODUCT_CATEGORY('part','',(#28));
#28=PRODUCT('pf6639C8F234kgr8','pf6639C8F234kgr8',' ',(#29));
#29=PRODUCT_CONTEXT(' ',#31,'mechanical');
#30=APPLICATION_PROTOCOL_DEFINITION('international standard',
'automotive_design',2010,#31);
#31=APPLICATION_CONTEXT(
'core data for automotive mechanical design processes');
#32=SHAPE_REPRESENTATION('pf6639C8F234kgr8-None',(#290),#500);
#33=SURFACE_STYLE_USAGE(.BOTH.,#34);
#34=SURFACE_SIDE_STYLE('',(#35));
#35=SURFACE_STYLE_FILL_AREA(#36);
#36=FILL_AREA_STYLE('',(#37));
#37=FILL_AREA_STYLE_COLOUR('',#286);
#38=MANIFOLD_SOLID_BREP('',#39);
#39=CLOSED_SHELL('',(#75,#76,#77,#78,#79,#80,#81,#82,#83,#84,#85,#86,#87,
#88,#89,#90,#91,#92));
#40=LINE('',#473,#46);
#41=LINE('',#477,#47);
#42=LINE('',#481,#48);
#43=LINE('',#483,#49);
#44=LINE('',#495,#50);
#45=LINE('',#496,#51);
#46=VECTOR('',#394,1.);
#47=VECTOR('',#397,1.);
#48=VECTOR('',#404,1.);
#49=VECTOR('',#405,1.);
#50=VECTOR('',#422,1.);
#51=VECTOR('',#423,1.);
#52=FACE_OUTER_BOUND('',#133,.T.);
#53=FACE_OUTER_BOUND('',#134,.T.);
#54=FACE_OUTER_BOUND('',#135,.T.);
#55=FACE_OUTER_BOUND('',#136,.T.);
#56=FACE_OUTER_BOUND('',#137,.T.);
#57=FACE_OUTER_BOUND('',#138,.T.);
#58=FACE_OUTER_BOUND('',#139,.T.);
#59=FACE_OUTER_BOUND('',#140,.T.);
#60=FACE_OUTER_BOUND('',#141,.T.);
#61=TOROIDAL_SURFACE('',#306,22.525,0.5);
#62=TOROIDAL_SURFACE('',#310,22.525,0.5);
#63=TOROIDAL_SURFACE('',#319,19.,3.);
#64=CONICAL_SURFACE('',#304,23.73127357173,60.);
#65=CONICAL_SURFACE('',#312,23.73127357179,60.);
#66=CONICAL_SURFACE('',#325,14.03626342104,4.5);
#67=CONICAL_SURFACE('',#327,14.03626342104,4.5);
#68=CONICAL_SURFACE('',#332,12.51453841141,8.2971);
#69=CONICAL_SURFACE('',#333,12.51453841141,8.2971);
#70=CYLINDRICAL_SURFACE('',#302,25.);
#71=CYLINDRICAL_SURFACE('',#308,22.025);
#72=CYLINDRICAL_SURFACE('',#313,25.);
#73=CYLINDRICAL_SURFACE('',#321,16.);
#74=CYLINDRICAL_SURFACE('',#323,16.);
#75=ADVANCED_FACE('',(#97,#98),#93,.F.);
#76=ADVANCED_FACE('',(#99,#100),#94,.T.);
#77=ADVANCED_FACE('',(#101,#102),#70,.T.);
#78=ADVANCED_FACE('',(#103,#104),#64,.T.);
#79=ADVANCED_FACE('',(#105,#106),#61,.F.);
#80=ADVANCED_FACE('',(#107,#108),#71,.T.);
#81=ADVANCED_FACE('',(#109,#110),#62,.F.);
#82=ADVANCED_FACE('',(#111,#112),#65,.T.);
#83=ADVANCED_FACE('',(#113,#114),#72,.T.);
#84=ADVANCED_FACE('',(#52),#63,.F.);
#85=ADVANCED_FACE('',(#53),#73,.T.);
#86=ADVANCED_FACE('',(#54),#74,.T.);
#87=ADVANCED_FACE('',(#55),#66,.T.);
#88=ADVANCED_FACE('',(#56),#67,.T.);
#89=ADVANCED_FACE('',(#57),#95,.T.);
#90=ADVANCED_FACE('',(#58),#96,.F.);
#91=ADVANCED_FACE('',(#59),#68,.T.);
#92=ADVANCED_FACE('',(#60),#69,.T.);
#93=PLANE('',#297);
#94=PLANE('',#300);
#95=PLANE('',#328);
#96=PLANE('',#331);
#97=FACE_BOUND('',#115,.T.);
#98=FACE_BOUND('',#116,.T.);
#99=FACE_BOUND('',#117,.T.);
#100=FACE_BOUND('',#118,.T.);
#101=FACE_BOUND('',#119,.T.);
#102=FACE_BOUND('',#120,.T.);
#103=FACE_BOUND('',#121,.T.);
#104=FACE_BOUND('',#122,.T.);
#105=FACE_BOUND('',#123,.T.);
#106=FACE_BOUND('',#124,.T.);
#107=FACE_BOUND('',#125,.T.);
#108=FACE_BOUND('',#126,.T.);
#109=FACE_BOUND('',#127,.T.);
#110=FACE_BOUND('',#128,.T.);
#111=FACE_BOUND('',#129,.T.);
#112=FACE_BOUND('',#130,.T.);
#113=FACE_BOUND('',#131,.T.);
#114=FACE_BOUND('',#132,.T.);
#115=EDGE_LOOP('',(#142));
#116=EDGE_LOOP('',(#143,#144));
#117=EDGE_LOOP('',(#145));
#118=EDGE_LOOP('',(#146));
#119=EDGE_LOOP('',(#147));
#120=EDGE_LOOP('',(#148));
#121=EDGE_LOOP('',(#149));
#122=EDGE_LOOP('',(#150));
#123=EDGE_LOOP('',(#151));
#124=EDGE_LOOP('',(#152));
#125=EDGE_LOOP('',(#153));
#126=EDGE_LOOP('',(#154));
#127=EDGE_LOOP('',(#155));
#128=EDGE_LOOP('',(#156));
#129=EDGE_LOOP('',(#157));
#130=EDGE_LOOP('',(#158));
#131=EDGE_LOOP('',(#159));
#132=EDGE_LOOP('',(#160));
#133=EDGE_LOOP('',(#161,#162,#163,#164,#165,#166,#167,#168));
#134=EDGE_LOOP('',(#169,#170,#171,#172,#173));
#135=EDGE_LOOP('',(#174,#175,#176,#177));
#136=EDGE_LOOP('',(#178,#179,#180,#181));
#137=EDGE_LOOP('',(#182,#183,#184,#185));
#138=EDGE_LOOP('',(#186,#187));
#139=EDGE_LOOP('',(#188,#189));
#140=EDGE_LOOP('',(#190,#191,#192,#193));
#141=EDGE_LOOP('',(#194,#195,#196,#197));
#142=ORIENTED_EDGE('',*,*,#219,.T.);
#143=ORIENTED_EDGE('',*,*,#220,.T.);
#144=ORIENTED_EDGE('',*,*,#221,.T.);
#145=ORIENTED_EDGE('',*,*,#222,.F.);
#146=ORIENTED_EDGE('',*,*,#223,.F.);
#147=ORIENTED_EDGE('',*,*,#222,.T.);
#148=ORIENTED_EDGE('',*,*,#224,.T.);
#149=ORIENTED_EDGE('',*,*,#224,.F.);
#150=ORIENTED_EDGE('',*,*,#225,.T.);
#151=ORIENTED_EDGE('',*,*,#225,.F.);
#152=ORIENTED_EDGE('',*,*,#226,.T.);
#153=ORIENTED_EDGE('',*,*,#226,.F.);
#154=ORIENTED_EDGE('',*,*,#227,.T.);
#155=ORIENTED_EDGE('',*,*,#227,.F.);
#156=ORIENTED_EDGE('',*,*,#228,.T.);
#157=ORIENTED_EDGE('',*,*,#228,.F.);
#158=ORIENTED_EDGE('',*,*,#229,.T.);
#159=ORIENTED_EDGE('',*,*,#229,.F.);
#160=ORIENTED_EDGE('',*,*,#219,.F.);
#161=ORIENTED_EDGE('',*,*,#223,.T.);
#162=ORIENTED_EDGE('',*,*,#230,.T.);
#163=ORIENTED_EDGE('',*,*,#231,.F.);
#164=ORIENTED_EDGE('',*,*,#232,.F.);
#165=ORIENTED_EDGE('',*,*,#232,.T.);
#166=ORIENTED_EDGE('',*,*,#233,.F.);
#167=ORIENTED_EDGE('',*,*,#234,.F.);
#168=ORIENTED_EDGE('',*,*,#230,.F.);
#169=ORIENTED_EDGE('',*,*,#235,.F.);
#170=ORIENTED_EDGE('',*,*,#236,.T.);
#171=ORIENTED_EDGE('',*,*,#237,.T.);
#172=ORIENTED_EDGE('',*,*,#233,.T.);
#173=ORIENTED_EDGE('',*,*,#231,.T.);
#174=ORIENTED_EDGE('',*,*,#237,.F.);
#175=ORIENTED_EDGE('',*,*,#238,.F.);
#176=ORIENTED_EDGE('',*,*,#235,.T.);
#177=ORIENTED_EDGE('',*,*,#234,.T.);
#178=ORIENTED_EDGE('',*,*,#239,.T.);
#179=ORIENTED_EDGE('',*,*,#238,.T.);
#180=ORIENTED_EDGE('',*,*,#240,.F.);
#181=ORIENTED_EDGE('',*,*,#241,.T.);
#182=ORIENTED_EDGE('',*,*,#240,.T.);
#183=ORIENTED_EDGE('',*,*,#236,.F.);
#184=ORIENTED_EDGE('',*,*,#239,.F.);
#185=ORIENTED_EDGE('',*,*,#242,.T.);
#186=ORIENTED_EDGE('',*,*,#241,.F.);
#187=ORIENTED_EDGE('',*,*,#242,.F.);
#188=ORIENTED_EDGE('',*,*,#243,.T.);
#189=ORIENTED_EDGE('',*,*,#244,.T.);
#190=ORIENTED_EDGE('',*,*,#245,.F.);
#191=ORIENTED_EDGE('',*,*,#220,.F.);
#192=ORIENTED_EDGE('',*,*,#246,.T.);
#193=ORIENTED_EDGE('',*,*,#243,.F.);
#194=ORIENTED_EDGE('',*,*,#246,.F.);
#195=ORIENTED_EDGE('',*,*,#221,.F.);
#196=ORIENTED_EDGE('',*,*,#245,.T.);
#197=ORIENTED_EDGE('',*,*,#244,.F.);
#198=VERTEX_POINT('',#433);
#199=VERTEX_POINT('',#435);
#200=VERTEX_POINT('',#436);
#201=VERTEX_POINT('',#440);
#202=VERTEX_POINT('',#442);
#203=VERTEX_POINT('',#445);
#204=VERTEX_POINT('',#448);
#205=VERTEX_POINT('',#451);
#206=VERTEX_POINT('',#454);
#207=VERTEX_POINT('',#457);
#208=VERTEX_POINT('',#460);
#209=VERTEX_POINT('',#464);
#210=VERTEX_POINT('',#466);
#211=VERTEX_POINT('',#468);
#212=VERTEX_POINT('',#470);
#213=VERTEX_POINT('',#474);
#214=VERTEX_POINT('',#476);
#215=VERTEX_POINT('',#482);
#216=VERTEX_POINT('',#484);
#217=VERTEX_POINT('',#491);
#218=VERTEX_POINT('',#492);
#219=EDGE_CURVE('',#198,#198,#247,.T.);
#220=EDGE_CURVE('',#199,#200,#248,.T.);
#221=EDGE_CURVE('',#200,#199,#249,.T.);
#222=EDGE_CURVE('',#201,#201,#250,.T.);
#223=EDGE_CURVE('',#202,#202,#251,.T.);
#224=EDGE_CURVE('',#203,#203,#252,.T.);
#225=EDGE_CURVE('',#204,#204,#253,.T.);
#226=EDGE_CURVE('',#205,#205,#254,.T.);
#227=EDGE_CURVE('',#206,#206,#255,.T.);
#228=EDGE_CURVE('',#207,#207,#256,.T.);
#229=EDGE_CURVE('',#208,#208,#257,.T.);
#230=EDGE_CURVE('',#202,#209,#258,.T.);
#231=EDGE_CURVE('',#210,#209,#259,.T.);
#232=EDGE_CURVE('',#211,#210,#260,.T.);
#233=EDGE_CURVE('',#212,#210,#261,.T.);
#234=EDGE_CURVE('',#209,#212,#262,.T.);
#235=EDGE_CURVE('',#213,#209,#40,.T.);
#236=EDGE_CURVE('',#213,#214,#263,.T.);
#237=EDGE_CURVE('',#214,#212,#41,.T.);
#238=EDGE_CURVE('',#213,#214,#264,.T.);
#239=EDGE_CURVE('',#215,#213,#42,.T.);
#240=EDGE_CURVE('',#216,#214,#43,.T.);
#241=EDGE_CURVE('',#216,#215,#265,.T.);
#242=EDGE_CURVE('',#215,#216,#266,.T.);
#243=EDGE_CURVE('',#217,#218,#267,.T.);
#244=EDGE_CURVE('',#218,#217,#268,.T.);
#245=EDGE_CURVE('',#200,#217,#44,.T.);
#246=EDGE_CURVE('',#199,#218,#45,.T.);
#247=CIRCLE('',#294,25.);
#248=CIRCLE('',#295,16.3416641016637);
#249=CIRCLE('',#296,16.3416641016637);
#250=CIRCLE('',#298,25.);
#251=CIRCLE('',#299,19.);
#252=CIRCLE('',#301,25.);
#253=CIRCLE('',#303,22.46254714345);
#254=CIRCLE('',#305,22.025);
#255=CIRCLE('',#307,22.025);
#256=CIRCLE('',#309,22.46254714358);
#257=CIRCLE('',#311,25.);
#258=CIRCLE('',#314,3.);
#259=CIRCLE('',#315,16.);
#260=CIRCLE('',#316,3.);
#261=CIRCLE('',#317,16.);
#262=CIRCLE('',#318,16.);
#263=CIRCLE('',#320,16.);
#264=CIRCLE('',#322,16.);
#265=CIRCLE('',#324,12.0000000000022);
#266=CIRCLE('',#326,12.0000000000022);
#267=CIRCLE('',#329,8.90420498141631);
#268=CIRCLE('',#330,8.90420498141631);
#269=INVISIBILITY((#270,#271,#272));
#270=PRESENTATION_LAYER_ASSIGNMENT('100','Layer 100',(#291));
#271=PRESENTATION_LAYER_ASSIGNMENT('101','Layer 101',(#292));
#272=PRESENTATION_LAYER_ASSIGNMENT('102','Layer 102',(#293));
#273=PRESENTATION_LAYER_ASSIGNMENT('98','Layer 98',(#38));
#274=STYLED_ITEM('',(#278),#291);
#275=STYLED_ITEM('',(#279),#292);
#276=STYLED_ITEM('',(#280),#293);
#277=STYLED_ITEM('',(#281),#38);
#278=PRESENTATION_STYLE_ASSIGNMENT((#282));
#279=PRESENTATION_STYLE_ASSIGNMENT((#283));
#280=PRESENTATION_STYLE_ASSIGNMENT((#284));
#281=PRESENTATION_STYLE_ASSIGNMENT((#33));
#282=CURVE_STYLE('',#287,POSITIVE_LENGTH_MEASURE(0.7),#285);
#283=CURVE_STYLE('',#288,POSITIVE_LENGTH_MEASURE(0.7),#285);
#284=CURVE_STYLE('',#289,POSITIVE_LENGTH_MEASURE(0.7),#285);
#285=COLOUR_RGB('Medium Maroon',0.6,0.4,0.4);
#286=COLOUR_RGB('Medium Gray',0.490196078431373,0.490196078431373,0.490196078431373);
#287=DRAUGHTING_PRE_DEFINED_CURVE_FONT('continuous');
#288=DRAUGHTING_PRE_DEFINED_CURVE_FONT('continuous');
#289=DRAUGHTING_PRE_DEFINED_CURVE_FONT('continuous');
#290=AXIS2_PLACEMENT_3D('',#428,#334,#335);
#291=AXIS2_PLACEMENT_3D('PCS',#429,#336,#337);
#292=AXIS2_PLACEMENT_3D('CSW',#430,#338,#339);
#293=AXIS2_PLACEMENT_3D('MCS',#431,#340,#341);
#294=AXIS2_PLACEMENT_3D('',#432,#342,#343);
#295=AXIS2_PLACEMENT_3D('',#434,#344,#345);
#296=AXIS2_PLACEMENT_3D('',#437,#346,#347);
#297=AXIS2_PLACEMENT_3D('',#438,#348,#349);
#298=AXIS2_PLACEMENT_3D('',#439,#350,#351);
#299=AXIS2_PLACEMENT_3D('',#441,#352,#353);
#300=AXIS2_PLACEMENT_3D('',#443,#354,#355);
#301=AXIS2_PLACEMENT_3D('',#444,#356,#357);
#302=AXIS2_PLACEMENT_3D('',#446,#358,#359);
#303=AXIS2_PLACEMENT_3D('',#447,#360,#361);
#304=AXIS2_PLACEMENT_3D('',#449,#362,#363);
#305=AXIS2_PLACEMENT_3D('',#450,#364,#365);
#306=AXIS2_PLACEMENT_3D('',#452,#366,#367);
#307=AXIS2_PLACEMENT_3D('',#453,#368,#369);
#308=AXIS2_PLACEMENT_3D('',#455,#370,#371);
#309=AXIS2_PLACEMENT_3D('',#456,#372,#373);
#310=AXIS2_PLACEMENT_3D('',#458,#374,#375);
#311=AXIS2_PLACEMENT_3D('',#459,#376,#377);
#312=AXIS2_PLACEMENT_3D('',#461,#378,#379);
#313=AXIS2_PLACEMENT_3D('',#462,#380,#381);
#314=AXIS2_PLACEMENT_3D('',#463,#382,#383);
#315=AXIS2_PLACEMENT_3D('',#465,#384,#385);
#316=AXIS2_PLACEMENT_3D('',#467,#386,#387);
#317=AXIS2_PLACEMENT_3D('',#469,#388,#389);
#318=AXIS2_PLACEMENT_3D('',#471,#390,#391);
#319=AXIS2_PLACEMENT_3D('',#472,#392,#393);
#320=AXIS2_PLACEMENT_3D('',#475,#395,#396);
#321=AXIS2_PLACEMENT_3D('',#478,#398,#399);
#322=AXIS2_PLACEMENT_3D('',#479,#400,#401);
#323=AXIS2_PLACEMENT_3D('',#480,#402,#403);
#324=AXIS2_PLACEMENT_3D('',#485,#406,#407);
#325=AXIS2_PLACEMENT_3D('',#486,#408,#409);
#326=AXIS2_PLACEMENT_3D('',#487,#410,#411);
#327=AXIS2_PLACEMENT_3D('',#488,#412,#413);
#328=AXIS2_PLACEMENT_3D('',#489,#414,#415);
#329=AXIS2_PLACEMENT_3D('',#490,#416,#417);
#330=AXIS2_PLACEMENT_3D('',#493,#418,#419);
#331=AXIS2_PLACEMENT_3D('',#494,#420,#421);
#332=AXIS2_PLACEMENT_3D('',#497,#424,#425);
#333=AXIS2_PLACEMENT_3D('',#498,#426,#427);
#334=DIRECTION('',(0.,0.,1.));
#335=DIRECTION('',(1.,0.,0.));
#336=DIRECTION('',(0.,0.,1.));
#337=DIRECTION('',(1.,0.,0.));
#338=DIRECTION('',(0.,0.,1.));
#339=DIRECTION('',(1.,0.,0.));
#340=DIRECTION('',(0.,0.,1.));
#341=DIRECTION('',(1.,0.,0.));
#342=DIRECTION('',(0.,0.,1.));
#343=DIRECTION('',(-1.,0.,0.));
#344=DIRECTION('',(0.,0.,-1.));
#345=DIRECTION('',(-1.,0.,0.));
#346=DIRECTION('',(0.,0.,-1.));
#347=DIRECTION('',(-1.,0.,0.));
#348=DIRECTION('',(0.,0.,-1.));
#349=DIRECTION('',(0.,1.,0.));
#350=DIRECTION('',(0.,0.,1.));
#351=DIRECTION('',(-1.,0.,0.));
#352=DIRECTION('',(0.,0.,-1.));
#353=DIRECTION('',(0.,1.,0.));
#354=DIRECTION('',(0.,0.,-1.));
#355=DIRECTION('',(0.,1.,0.));
#356=DIRECTION('',(0.,0.,-1.));
#357=DIRECTION('',(0.94673966854674,-0.322000000000014,0.));
#358=DIRECTION('',(0.,0.,-1.));
#359=DIRECTION('',(0.,1.,0.));
#360=DIRECTION('',(0.,0.,-1.));
#361=DIRECTION('',(0.933577982075045,-0.358374317417817,0.));
#362=DIRECTION('',(0.,0.,-1.));
#363=DIRECTION('',(0.,1.,-4.14962578634445E-17));
#364=DIRECTION('',(0.,0.,-1.));
#365=DIRECTION('',(0.930813791005031,-0.365493757094212,0.));
#366=DIRECTION('',(0.,0.,-1.));
#367=DIRECTION('',(6.47937227024391E-5,-0.999999997900887,0.));
#368=DIRECTION('',(0.,0.,-1.));
#369=DIRECTION('',(0.930813791005031,-0.365493757094212,0.));
#370=DIRECTION('',(0.,0.,-1.));
#371=DIRECTION('',(0.,1.,0.));
#372=DIRECTION('',(0.,0.,-1.));
#373=DIRECTION('',(0.933577982075817,-0.358374317415807,0.));
#374=DIRECTION('',(0.,0.,-1.));
#375=DIRECTION('',(6.44853621066812E-5,-0.999999997920819,0.));
#376=DIRECTION('',(0.,0.,-1.));
#377=DIRECTION('',(0.94673966854674,-0.322000000000014,0.));
#378=DIRECTION('',(0.,0.,1.));
#379=DIRECTION('',(0.,-1.,3.06281903277794E-17));
#380=DIRECTION('',(0.,0.,-1.));
#381=DIRECTION('',(0.,1.,0.));
#382=DIRECTION('',(1.,1.473040439626E-14,0.));
#383=DIRECTION('',(1.80780624113149E-28,-1.15648231731787E-14,1.));
#384=DIRECTION('',(0.,0.,-1.));
#385=DIRECTION('',(-0.999999999968712,7.91050767655709E-6,0.));
#386=DIRECTION('',(2.96894136340398E-6,0.999999999995593,0.));
#387=DIRECTION('',(0.899999999972093,-2.67204722699251E-6,0.435889894403498));
#388=DIRECTION('',(0.,0.,-1.));
#389=DIRECTION('',(0.,-1.,0.));
#390=DIRECTION('',(0.,0.,-1.));
#391=DIRECTION('',(0.,1.,0.));
#392=DIRECTION('',(0.,0.,-1.));
#393=DIRECTION('',(-0.99999889596136,0.00148595964285994,0.));
#394=DIRECTION('',(8.168782132679E-13,0.,1.));
#395=DIRECTION('',(0.,0.,1.));
#396=DIRECTION('',(0.,1.,0.));
#397=DIRECTION('',(-5.44783873542E-13,0.,1.));
#398=DIRECTION('',(0.,0.,-1.));
#399=DIRECTION('',(0.,1.,0.));
#400=DIRECTION('',(0.,0.,-1.));
#401=DIRECTION('',(0.,1.,0.));
#402=DIRECTION('',(0.,0.,-1.));
#403=DIRECTION('',(0.,1.,0.));
#404=DIRECTION('',(0.,0.0784590957278522,0.996917333733127));
#405=DIRECTION('',(0.,-0.0784590957278522,0.996917333733127));
#406=DIRECTION('',(0.,0.,1.));
#407=DIRECTION('',(-1.,0.,0.));
#408=DIRECTION('',(0.,0.,1.));
#409=DIRECTION('',(0.,-1.,-5.98580614652353E-16));
#410=DIRECTION('',(0.,0.,1.));
#411=DIRECTION('',(-1.,0.,0.));
#412=DIRECTION('',(0.,0.,1.));
#413=DIRECTION('',(0.,-1.,-5.98580614652353E-16));
#414=DIRECTION('',(0.,0.,-1.));
#415=DIRECTION('',(0.,1.,0.));
#416=DIRECTION('',(0.,0.,1.));
#417=DIRECTION('',(-1.,0.,0.));
#418=DIRECTION('',(0.,0.,1.));
#419=DIRECTION('',(-1.,0.,0.));
#420=DIRECTION('',(0.,0.,-1.));
#421=DIRECTION('',(0.,1.,0.));
#422=DIRECTION('',(-3.82951926350393E-13,0.144306116415197,0.989533094325381));
#423=DIRECTION('',(3.82953160747093E-13,-0.144306116415197,0.989533094325381));
#424=DIRECTION('',(0.,0.,-1.));
#425=DIRECTION('',(0.,1.,2.84835142979602E-16));
#426=DIRECTION('',(0.,0.,-1.));
#427=DIRECTION('',(0.,1.,2.84835142979602E-16));
#428=CARTESIAN_POINT('',(0.,0.,0.));
#429=CARTESIAN_POINT('',(0.,0.,0.));
#430=CARTESIAN_POINT('',(0.,0.,-80.));
#431=CARTESIAN_POINT('',(0.,0.,0.));
#432=CARTESIAN_POINT('',(0.,0.,-3.2));
#433=CARTESIAN_POINT('',(-25.,0.,-3.2));
#434=CARTESIAN_POINT('',(0.,0.,-3.2));
#435=CARTESIAN_POINT('',(0.,16.3416641016637,-3.2));
#436=CARTESIAN_POINT('',(-1.24149938345436E-11,-16.3416641016637,-3.2));
#437=CARTESIAN_POINT('',(0.,0.,-3.2));
#438=CARTESIAN_POINT('',(0.,0.,-3.2));
#439=CARTESIAN_POINT('',(0.,0.,-19.1));
#440=CARTESIAN_POINT('',(-25.,0.,-19.1));
#441=CARTESIAN_POINT('',(0.,0.,-19.1));
#442=CARTESIAN_POINT('',(0.,19.,-19.1));
#443=CARTESIAN_POINT('',(0.,0.,-19.1));
#444=CARTESIAN_POINT('',(0.,0.,-14.477499074759));
#445=CARTESIAN_POINT('',(23.6684917136685,-8.05000000000034,-14.477499074759));
#446=CARTESIAN_POINT('',(0.,0.,51.145));
#447=CARTESIAN_POINT('',(0.,0.,-13.012499984975));
#448=CARTESIAN_POINT('',(20.9705394344476,-8.04999999999944,-13.012499984975));
#449=CARTESIAN_POINT('',(0.,0.,-13.744999529867));
#450=CARTESIAN_POINT('',(0.,0.,-12.51641567691));
#451=CARTESIAN_POINT('',(20.5011737468858,-8.05000000000002,-12.51641567691));
#452=CARTESIAN_POINT('',(0.,0.,-12.51641567691));
#453=CARTESIAN_POINT('',(0.,0.,-9.683584323034));
#454=CARTESIAN_POINT('',(20.5011737468858,-8.05000000000002,-9.683584323034));
#455=CARTESIAN_POINT('',(0.,0.,51.145));
#456=CARTESIAN_POINT('',(0.,0.,-9.187500014953));
#457=CARTESIAN_POINT('',(20.9705394345863,-8.05000000000086,-9.187500014953));
#458=CARTESIAN_POINT('',(0.,0.,-9.683584323034));
#459=CARTESIAN_POINT('',(0.,0.,-7.72250092524));
#460=CARTESIAN_POINT('',(23.6684917136685,-8.05000000000034,-7.72250092524));
#461=CARTESIAN_POINT('',(0.,0.,-8.4550004701));
#462=CARTESIAN_POINT('',(0.,0.,51.145));
#463=CARTESIAN_POINT('',(-2.798594689324E-13,19.,-22.1));
#464=CARTESIAN_POINT('',(0.,16.,-22.1));
#465=CARTESIAN_POINT('',(0.,0.,-22.1));
#466=CARTESIAN_POINT('',(-15.9999999995,0.0001265681228249,-22.1));
#467=CARTESIAN_POINT('',(-18.99999999992,5.640988590467E-5,-22.1));
#468=CARTESIAN_POINT('',(-16.3,4.83937442198621E-5,-20.7923303167933));
#469=CARTESIAN_POINT('',(0.,0.,-22.1));
#470=CARTESIAN_POINT('',(0.,-16.,-22.1));
#471=CARTESIAN_POINT('',(0.,0.,-22.1));
#472=CARTESIAN_POINT('',(0.,0.,-22.1));
#473=CARTESIAN_POINT('',(0.,16.,-29.1751810553));
#474=CARTESIAN_POINT('',(0.,16.,-29.1751810553));
#475=CARTESIAN_POINT('',(0.,0.,-29.1751810553));
#476=CARTESIAN_POINT('',(0.,-16.,-29.1751810553));
#477=CARTESIAN_POINT('',(0.,-16.,-29.1751810553));
#478=CARTESIAN_POINT('',(0.,0.,-15.02551788146));
#479=CARTESIAN_POINT('',(0.,0.,-29.1751810553));
#480=CARTESIAN_POINT('',(0.,0.,-15.02551788146));
#481=CARTESIAN_POINT('',(-3.501190022894E-13,12.07252684207,-79.07845909573));
#482=CARTESIAN_POINT('',(-3.501190022894E-13,11.9999999999952,-80.));
#483=CARTESIAN_POINT('',(3.497459183086E-13,-12.07252684207,-79.07845909573));
#484=CARTESIAN_POINT('',(3.497459183086E-13,-11.9999999999952,-80.));
#485=CARTESIAN_POINT('',(0.,0.,-80.));
#486=CARTESIAN_POINT('',(0.,0.,-54.12682007551));
#487=CARTESIAN_POINT('',(0.,0.,-80.));
#488=CARTESIAN_POINT('',(0.,0.,-54.12682007551));
#489=CARTESIAN_POINT('',(0.,0.,-80.));
#490=CARTESIAN_POINT('',(0.,0.,47.8));
#491=CARTESIAN_POINT('',(-1.89631296808341E-11,-8.90420498141354,47.8));
#492=CARTESIAN_POINT('',(1.89631908060644E-11,8.90420498141354,47.8));
#493=CARTESIAN_POINT('',(0.,0.,47.8));
#494=CARTESIAN_POINT('',(0.,0.,47.8));
#495=CARTESIAN_POINT('',(0.,-16.04999903812,-1.2));
#496=CARTESIAN_POINT('',(0.,16.04999903812,-1.2));
#497=CARTESIAN_POINT('',(0.,0.,23.04329183492));
#498=CARTESIAN_POINT('',(0.,0.,23.04329183492));
#499=MECHANICAL_DESIGN_GEOMETRIC_PRESENTATION_REPRESENTATION('',(#274,#275,
#276,#277),#500);
#500=(
GEOMETRIC_REPRESENTATION_CONTEXT(3)
GLOBAL_UNCERTAINTY_ASSIGNED_CONTEXT((#501))
GLOBAL_UNIT_ASSIGNED_CONTEXT((#507,#503,#502))
REPRESENTATION_CONTEXT('69871.30AD-SC.10','TOP_LEVEL_ASSEMBLY_PART')
);
#501=UNCERTAINTY_MEASURE_WITH_UNIT(LENGTH_MEASURE(0.00015971142324349),
#507,'DISTANCE_ACCURACY_VALUE','Maximum Tolerance applied to model');
#502=(
NAMED_UNIT(*)
SI_UNIT($,.STERADIAN.)
SOLID_ANGLE_UNIT()
);
#503=(
CONVERSION_BASED_UNIT('DEGREE',#505)
NAMED_UNIT(#504)
PLANE_ANGLE_UNIT()
);
#504=DIMENSIONAL_EXPONENTS(0.,0.,0.,0.,0.,0.,0.);
#505=PLANE_ANGLE_MEASURE_WITH_UNIT(PLANE_ANGLE_MEASURE(0.0174532925),#506);
#506=(
NAMED_UNIT(*)
PLANE_ANGLE_UNIT()
SI_UNIT($,.RADIAN.)
);
#507=(
LENGTH_UNIT()
NAMED_UNIT(*)
SI_UNIT(.MILLI.,.METRE.)
);
ENDSEC;
END-ISO-10303-21;
