ISO-10303-21;
HEADER;
/* Generated by software containing ST-Developer
 * from STEP Tools, Inc. (www.steptools.com) 
 */
/* OPTION: using custom schema-name function */

FILE_DESCRIPTION(
/* description */ (''),
/* implementation_level */ '2;1');

FILE_NAME(
/* name */ '69871.30AD-SC.18.100.stp',
/* time_stamp */ '2024-06-24T06:49:44+02:00',
/* author */ (''),
/* organization */ (''),
/* preprocessor_version */ 'ST-DEVELOPER v16.7',
/* originating_system */ 'SIEMENS PLM Software NX 12.0',
/* authorisation */ '');

FILE_SCHEMA (('AUTOMOTIVE_DESIGN { 1 0 10303 214 3 1 1 1 }'));
ENDSEC;

DATA;
#10=CONSTRUCTIVE_GEOMETRY_REPRESENTATION_RELATIONSHIP(
'supplemental geometry','',#32,#11);
#11=CONSTRUCTIVE_GEOMETRY_REPRESENTATION('supplemental geometry',(#279,
#280,#281),#474);
#12=PROPERTY_DEFINITION_REPRESENTATION(#16,#14);
#13=PROPERTY_DEFINITION_REPRESENTATION(#17,#15);
#14=REPRESENTATION('',(#18),#474);
#15=REPRESENTATION('',(#19),#474);
#16=PROPERTY_DEFINITION('pmi validation property','',#23);
#17=PROPERTY_DEFINITION('pmi validation property','',#23);
#18=VALUE_REPRESENTATION_ITEM('number of annotations',COUNT_MEASURE(0.));
#19=VALUE_REPRESENTATION_ITEM('number of views',COUNT_MEASURE(0.));
#20=SHAPE_REPRESENTATION_RELATIONSHIP('None',
'relationship between pf6639C8F234kgs5-None and pf6639C8F234kgs5-None',
#32,#21);
#21=ADVANCED_BREP_SHAPE_REPRESENTATION('pf6639C8F234kgs5-None',(#38),#474);
#22=SHAPE_DEFINITION_REPRESENTATION(#23,#32);
#23=PRODUCT_DEFINITION_SHAPE('','',#24);
#24=PRODUCT_DEFINITION(' ','',#26,#25);
#25=PRODUCT_DEFINITION_CONTEXT('part definition',#31,'design');
#26=PRODUCT_DEFINITION_FORMATION_WITH_SPECIFIED_SOURCE(' ',' ',#28,
 .NOT_KNOWN.);
#27=PRODUCT_RELATED_PRODUCT_CATEGORY('part','',(#28));
#28=PRODUCT('pf6639C8F234kgs5','pf6639C8F234kgs5',' ',(#29));
#29=PRODUCT_CONTEXT(' ',#31,'mechanical');
#30=APPLICATION_PROTOCOL_DEFINITION('international standard',
'automotive_design',2010,#31);
#31=APPLICATION_CONTEXT(
'core data for automotive mechanical design processes');
#32=SHAPE_REPRESENTATION('pf6639C8F234kgs5-None',(#278),#474);
#33=SURFACE_STYLE_USAGE(.BOTH.,#34);
#34=SURFACE_SIDE_STYLE('',(#35));
#35=SURFACE_STYLE_FILL_AREA(#36);
#36=FILL_AREA_STYLE('',(#37));
#37=FILL_AREA_STYLE_COLOUR('',#274);
#38=MANIFOLD_SOLID_BREP('',#39);
#39=CLOSED_SHELL('',(#74,#75,#76,#77,#78,#79,#80,#81,#82,#83,#84,#85,#86,
#87,#88,#89,#90,#91));
#40=CONICAL_SURFACE('',#297,18.78626342104,4.5);
#41=CONICAL_SURFACE('',#299,18.78626342104,4.5);
#42=CONICAL_SURFACE('',#304,23.73127357173,60.);
#43=CONICAL_SURFACE('',#312,23.73127357179,60.);
#44=CONICAL_SURFACE('',#317,12.51453841141,8.2971);
#45=CONICAL_SURFACE('',#318,12.51453841141,8.2971);
#46=TOROIDAL_SURFACE('',#293,23.,2.);
#47=TOROIDAL_SURFACE('',#306,22.525,0.5);
#48=TOROIDAL_SURFACE('',#310,22.525,0.5);
#49=CYLINDRICAL_SURFACE('',#291,21.);
#50=CYLINDRICAL_SURFACE('',#295,21.);
#51=CYLINDRICAL_SURFACE('',#302,25.);
#52=CYLINDRICAL_SURFACE('',#308,22.025);
#53=CYLINDRICAL_SURFACE('',#313,25.);
#54=FACE_OUTER_BOUND('',#120,.T.);
#55=FACE_OUTER_BOUND('',#123,.T.);
#56=FACE_OUTER_BOUND('',#124,.T.);
#57=FACE_OUTER_BOUND('',#125,.T.);
#58=FACE_OUTER_BOUND('',#126,.T.);
#59=FACE_OUTER_BOUND('',#141,.T.);
#60=FACE_OUTER_BOUND('',#142,.T.);
#61=FACE_OUTER_BOUND('',#143,.T.);
#62=LINE('',#423,#68);
#63=LINE('',#428,#69);
#64=LINE('',#436,#70);
#65=LINE('',#438,#71);
#66=LINE('',#469,#72);
#67=LINE('',#470,#73);
#68=VECTOR('',#341,1.);
#69=VECTOR('',#344,1.);
#70=VECTOR('',#357,1.);
#71=VECTOR('',#358,1.);
#72=VECTOR('',#401,1.);
#73=VECTOR('',#402,1.);
#74=ADVANCED_FACE('',(#96,#97),#92,.F.);
#75=ADVANCED_FACE('',(#98,#99),#93,.T.);
#76=ADVANCED_FACE('',(#54),#49,.T.);
#77=ADVANCED_FACE('',(#100,#101),#46,.F.);
#78=ADVANCED_FACE('',(#55),#50,.T.);
#79=ADVANCED_FACE('',(#56),#40,.T.);
#80=ADVANCED_FACE('',(#57),#41,.T.);
#81=ADVANCED_FACE('',(#58),#94,.T.);
#82=ADVANCED_FACE('',(#102,#103),#51,.T.);
#83=ADVANCED_FACE('',(#104,#105),#42,.T.);
#84=ADVANCED_FACE('',(#106,#107),#47,.F.);
#85=ADVANCED_FACE('',(#108,#109),#52,.T.);
#86=ADVANCED_FACE('',(#110,#111),#48,.F.);
#87=ADVANCED_FACE('',(#112,#113),#43,.T.);
#88=ADVANCED_FACE('',(#114,#115),#53,.T.);
#89=ADVANCED_FACE('',(#59),#95,.F.);
#90=ADVANCED_FACE('',(#60),#44,.T.);
#91=ADVANCED_FACE('',(#61),#45,.T.);
#92=PLANE('',#285);
#93=PLANE('',#288);
#94=PLANE('',#300);
#95=PLANE('',#316);
#96=FACE_BOUND('',#116,.T.);
#97=FACE_BOUND('',#117,.T.);
#98=FACE_BOUND('',#118,.T.);
#99=FACE_BOUND('',#119,.T.);
#100=FACE_BOUND('',#121,.T.);
#101=FACE_BOUND('',#122,.T.);
#102=FACE_BOUND('',#127,.T.);
#103=FACE_BOUND('',#128,.T.);
#104=FACE_BOUND('',#129,.T.);
#105=FACE_BOUND('',#130,.T.);
#106=FACE_BOUND('',#131,.T.);
#107=FACE_BOUND('',#132,.T.);
#108=FACE_BOUND('',#133,.T.);
#109=FACE_BOUND('',#134,.T.);
#110=FACE_BOUND('',#135,.T.);
#111=FACE_BOUND('',#136,.T.);
#112=FACE_BOUND('',#137,.T.);
#113=FACE_BOUND('',#138,.T.);
#114=FACE_BOUND('',#139,.T.);
#115=FACE_BOUND('',#140,.T.);
#116=EDGE_LOOP('',(#144));
#117=EDGE_LOOP('',(#145,#146));
#118=EDGE_LOOP('',(#147));
#119=EDGE_LOOP('',(#148));
#120=EDGE_LOOP('',(#149,#150,#151,#152));
#121=EDGE_LOOP('',(#153));
#122=EDGE_LOOP('',(#154,#155));
#123=EDGE_LOOP('',(#156,#157,#158,#159));
#124=EDGE_LOOP('',(#160,#161,#162,#163));
#125=EDGE_LOOP('',(#164,#165,#166,#167));
#126=EDGE_LOOP('',(#168,#169));
#127=EDGE_LOOP('',(#170));
#128=EDGE_LOOP('',(#171));
#129=EDGE_LOOP('',(#172));
#130=EDGE_LOOP('',(#173));
#131=EDGE_LOOP('',(#174));
#132=EDGE_LOOP('',(#175));
#133=EDGE_LOOP('',(#176));
#134=EDGE_LOOP('',(#177));
#135=EDGE_LOOP('',(#178));
#136=EDGE_LOOP('',(#179));
#137=EDGE_LOOP('',(#180));
#138=EDGE_LOOP('',(#181));
#139=EDGE_LOOP('',(#182));
#140=EDGE_LOOP('',(#183));
#141=EDGE_LOOP('',(#184,#185));
#142=EDGE_LOOP('',(#186,#187,#188,#189));
#143=EDGE_LOOP('',(#190,#191,#192,#193));
#144=ORIENTED_EDGE('',*,*,#213,.T.);
#145=ORIENTED_EDGE('',*,*,#214,.T.);
#146=ORIENTED_EDGE('',*,*,#215,.T.);
#147=ORIENTED_EDGE('',*,*,#216,.F.);
#148=ORIENTED_EDGE('',*,*,#217,.T.);
#149=ORIENTED_EDGE('',*,*,#218,.F.);
#150=ORIENTED_EDGE('',*,*,#219,.F.);
#151=ORIENTED_EDGE('',*,*,#220,.T.);
#152=ORIENTED_EDGE('',*,*,#221,.T.);
#153=ORIENTED_EDGE('',*,*,#217,.F.);
#154=ORIENTED_EDGE('',*,*,#221,.F.);
#155=ORIENTED_EDGE('',*,*,#222,.F.);
#156=ORIENTED_EDGE('',*,*,#222,.T.);
#157=ORIENTED_EDGE('',*,*,#220,.F.);
#158=ORIENTED_EDGE('',*,*,#223,.T.);
#159=ORIENTED_EDGE('',*,*,#218,.T.);
#160=ORIENTED_EDGE('',*,*,#224,.T.);
#161=ORIENTED_EDGE('',*,*,#223,.F.);
#162=ORIENTED_EDGE('',*,*,#225,.F.);
#163=ORIENTED_EDGE('',*,*,#226,.T.);
#164=ORIENTED_EDGE('',*,*,#225,.T.);
#165=ORIENTED_EDGE('',*,*,#219,.T.);
#166=ORIENTED_EDGE('',*,*,#224,.F.);
#167=ORIENTED_EDGE('',*,*,#227,.T.);
#168=ORIENTED_EDGE('',*,*,#227,.F.);
#169=ORIENTED_EDGE('',*,*,#226,.F.);
#170=ORIENTED_EDGE('',*,*,#216,.T.);
#171=ORIENTED_EDGE('',*,*,#228,.T.);
#172=ORIENTED_EDGE('',*,*,#228,.F.);
#173=ORIENTED_EDGE('',*,*,#229,.T.);
#174=ORIENTED_EDGE('',*,*,#229,.F.);
#175=ORIENTED_EDGE('',*,*,#230,.T.);
#176=ORIENTED_EDGE('',*,*,#230,.F.);
#177=ORIENTED_EDGE('',*,*,#231,.T.);
#178=ORIENTED_EDGE('',*,*,#231,.F.);
#179=ORIENTED_EDGE('',*,*,#232,.T.);
#180=ORIENTED_EDGE('',*,*,#232,.F.);
#181=ORIENTED_EDGE('',*,*,#233,.T.);
#182=ORIENTED_EDGE('',*,*,#233,.F.);
#183=ORIENTED_EDGE('',*,*,#213,.F.);
#184=ORIENTED_EDGE('',*,*,#234,.T.);
#185=ORIENTED_EDGE('',*,*,#235,.T.);
#186=ORIENTED_EDGE('',*,*,#236,.F.);
#187=ORIENTED_EDGE('',*,*,#215,.F.);
#188=ORIENTED_EDGE('',*,*,#237,.T.);
#189=ORIENTED_EDGE('',*,*,#235,.F.);
#190=ORIENTED_EDGE('',*,*,#237,.F.);
#191=ORIENTED_EDGE('',*,*,#214,.F.);
#192=ORIENTED_EDGE('',*,*,#236,.T.);
#193=ORIENTED_EDGE('',*,*,#234,.F.);
#194=VERTEX_POINT('',#412);
#195=VERTEX_POINT('',#414);
#196=VERTEX_POINT('',#415);
#197=VERTEX_POINT('',#419);
#198=VERTEX_POINT('',#421);
#199=VERTEX_POINT('',#424);
#200=VERTEX_POINT('',#425);
#201=VERTEX_POINT('',#427);
#202=VERTEX_POINT('',#429);
#203=VERTEX_POINT('',#437);
#204=VERTEX_POINT('',#439);
#205=VERTEX_POINT('',#446);
#206=VERTEX_POINT('',#449);
#207=VERTEX_POINT('',#452);
#208=VERTEX_POINT('',#455);
#209=VERTEX_POINT('',#458);
#210=VERTEX_POINT('',#461);
#211=VERTEX_POINT('',#465);
#212=VERTEX_POINT('',#466);
#213=EDGE_CURVE('',#194,#194,#238,.T.);
#214=EDGE_CURVE('',#195,#196,#239,.T.);
#215=EDGE_CURVE('',#196,#195,#240,.T.);
#216=EDGE_CURVE('',#197,#197,#241,.T.);
#217=EDGE_CURVE('',#198,#198,#242,.T.);
#218=EDGE_CURVE('',#199,#200,#62,.T.);
#219=EDGE_CURVE('',#201,#199,#243,.T.);
#220=EDGE_CURVE('',#201,#202,#63,.T.);
#221=EDGE_CURVE('',#202,#200,#244,.T.);
#222=EDGE_CURVE('',#200,#202,#245,.T.);
#223=EDGE_CURVE('',#201,#199,#246,.T.);
#224=EDGE_CURVE('',#203,#199,#64,.T.);
#225=EDGE_CURVE('',#204,#201,#65,.T.);
#226=EDGE_CURVE('',#204,#203,#247,.T.);
#227=EDGE_CURVE('',#203,#204,#248,.T.);
#228=EDGE_CURVE('',#205,#205,#249,.T.);
#229=EDGE_CURVE('',#206,#206,#250,.T.);
#230=EDGE_CURVE('',#207,#207,#251,.T.);
#231=EDGE_CURVE('',#208,#208,#252,.T.);
#232=EDGE_CURVE('',#209,#209,#253,.T.);
#233=EDGE_CURVE('',#210,#210,#254,.T.);
#234=EDGE_CURVE('',#211,#212,#255,.T.);
#235=EDGE_CURVE('',#212,#211,#256,.T.);
#236=EDGE_CURVE('',#195,#212,#66,.T.);
#237=EDGE_CURVE('',#196,#211,#67,.T.);
#238=CIRCLE('',#282,25.);
#239=CIRCLE('',#283,16.3416641016637);
#240=CIRCLE('',#284,16.3416641016637);
#241=CIRCLE('',#286,25.);
#242=CIRCLE('',#287,23.);
#243=CIRCLE('',#289,21.);
#244=CIRCLE('',#290,21.);
#245=CIRCLE('',#292,21.);
#246=CIRCLE('',#294,21.);
#247=CIRCLE('',#296,16.5000000000025);
#248=CIRCLE('',#298,16.5000000000025);
#249=CIRCLE('',#301,25.);
#250=CIRCLE('',#303,22.46254714345);
#251=CIRCLE('',#305,22.025);
#252=CIRCLE('',#307,22.025);
#253=CIRCLE('',#309,22.46254714358);
#254=CIRCLE('',#311,25.);
#255=CIRCLE('',#314,8.90420498141631);
#256=CIRCLE('',#315,8.90420498141631);
#257=INVISIBILITY((#258,#259,#260));
#258=PRESENTATION_LAYER_ASSIGNMENT('100','Layer 100',(#279));
#259=PRESENTATION_LAYER_ASSIGNMENT('101','Layer 101',(#280));
#260=PRESENTATION_LAYER_ASSIGNMENT('102','Layer 102',(#281));
#261=PRESENTATION_LAYER_ASSIGNMENT('98','Layer 98',(#38));
#262=STYLED_ITEM('',(#266),#279);
#263=STYLED_ITEM('',(#267),#280);
#264=STYLED_ITEM('',(#268),#281);
#265=STYLED_ITEM('',(#269),#38);
#266=PRESENTATION_STYLE_ASSIGNMENT((#270));
#267=PRESENTATION_STYLE_ASSIGNMENT((#271));
#268=PRESENTATION_STYLE_ASSIGNMENT((#272));
#269=PRESENTATION_STYLE_ASSIGNMENT((#33));
#270=CURVE_STYLE('',#275,POSITIVE_LENGTH_MEASURE(0.7),#273);
#271=CURVE_STYLE('',#276,POSITIVE_LENGTH_MEASURE(0.7),#273);
#272=CURVE_STYLE('',#277,POSITIVE_LENGTH_MEASURE(0.7),#273);
#273=COLOUR_RGB('Medium Maroon',0.6,0.4,0.4);
#274=COLOUR_RGB('Medium Gray',0.490196078431373,0.490196078431373,0.490196078431373);
#275=DRAUGHTING_PRE_DEFINED_CURVE_FONT('continuous');
#276=DRAUGHTING_PRE_DEFINED_CURVE_FONT('continuous');
#277=DRAUGHTING_PRE_DEFINED_CURVE_FONT('continuous');
#278=AXIS2_PLACEMENT_3D('',#407,#319,#320);
#279=AXIS2_PLACEMENT_3D('PCS',#408,#321,#322);
#280=AXIS2_PLACEMENT_3D('CSW',#409,#323,#324);
#281=AXIS2_PLACEMENT_3D('MCS',#410,#325,#326);
#282=AXIS2_PLACEMENT_3D('',#411,#327,#328);
#283=AXIS2_PLACEMENT_3D('',#413,#329,#330);
#284=AXIS2_PLACEMENT_3D('',#416,#331,#332);
#285=AXIS2_PLACEMENT_3D('',#417,#333,#334);
#286=AXIS2_PLACEMENT_3D('',#418,#335,#336);
#287=AXIS2_PLACEMENT_3D('',#420,#337,#338);
#288=AXIS2_PLACEMENT_3D('',#422,#339,#340);
#289=AXIS2_PLACEMENT_3D('',#426,#342,#343);
#290=AXIS2_PLACEMENT_3D('',#430,#345,#346);
#291=AXIS2_PLACEMENT_3D('',#431,#347,#348);
#292=AXIS2_PLACEMENT_3D('',#432,#349,#350);
#293=AXIS2_PLACEMENT_3D('',#433,#351,#352);
#294=AXIS2_PLACEMENT_3D('',#434,#353,#354);
#295=AXIS2_PLACEMENT_3D('',#435,#355,#356);
#296=AXIS2_PLACEMENT_3D('',#440,#359,#360);
#297=AXIS2_PLACEMENT_3D('',#441,#361,#362);
#298=AXIS2_PLACEMENT_3D('',#442,#363,#364);
#299=AXIS2_PLACEMENT_3D('',#443,#365,#366);
#300=AXIS2_PLACEMENT_3D('',#444,#367,#368);
#301=AXIS2_PLACEMENT_3D('',#445,#369,#370);
#302=AXIS2_PLACEMENT_3D('',#447,#371,#372);
#303=AXIS2_PLACEMENT_3D('',#448,#373,#374);
#304=AXIS2_PLACEMENT_3D('',#450,#375,#376);
#305=AXIS2_PLACEMENT_3D('',#451,#377,#378);
#306=AXIS2_PLACEMENT_3D('',#453,#379,#380);
#307=AXIS2_PLACEMENT_3D('',#454,#381,#382);
#308=AXIS2_PLACEMENT_3D('',#456,#383,#384);
#309=AXIS2_PLACEMENT_3D('',#457,#385,#386);
#310=AXIS2_PLACEMENT_3D('',#459,#387,#388);
#311=AXIS2_PLACEMENT_3D('',#460,#389,#390);
#312=AXIS2_PLACEMENT_3D('',#462,#391,#392);
#313=AXIS2_PLACEMENT_3D('',#463,#393,#394);
#314=AXIS2_PLACEMENT_3D('',#464,#395,#396);
#315=AXIS2_PLACEMENT_3D('',#467,#397,#398);
#316=AXIS2_PLACEMENT_3D('',#468,#399,#400);
#317=AXIS2_PLACEMENT_3D('',#471,#403,#404);
#318=AXIS2_PLACEMENT_3D('',#472,#405,#406);
#319=DIRECTION('',(0.,0.,1.));
#320=DIRECTION('',(1.,0.,0.));
#321=DIRECTION('',(0.,0.,1.));
#322=DIRECTION('',(1.,0.,0.));
#323=DIRECTION('',(0.,0.,1.));
#324=DIRECTION('',(1.,0.,0.));
#325=DIRECTION('',(0.,0.,1.));
#326=DIRECTION('',(1.,0.,0.));
#327=DIRECTION('',(0.,0.,1.));
#328=DIRECTION('',(-1.,0.,0.));
#329=DIRECTION('',(0.,0.,-1.));
#330=DIRECTION('',(-1.,0.,0.));
#331=DIRECTION('',(0.,0.,-1.));
#332=DIRECTION('',(-1.,0.,0.));
#333=DIRECTION('',(0.,0.,-1.));
#334=DIRECTION('',(0.,1.,0.));
#335=DIRECTION('',(0.,0.,1.));
#336=DIRECTION('',(-1.,0.,0.));
#337=DIRECTION('',(0.,0.,1.));
#338=DIRECTION('',(-0.936749699759765,-0.349999999999987,0.));
#339=DIRECTION('',(0.,0.,-1.));
#340=DIRECTION('',(0.,1.,0.));
#341=DIRECTION('',(-8.558651562599E-14,0.,1.));
#342=DIRECTION('',(0.,0.,-1.));
#343=DIRECTION('',(0.,1.,0.));
#344=DIRECTION('',(8.608748974547E-14,0.,1.));
#345=DIRECTION('',(0.,0.,-1.));
#346=DIRECTION('',(0.927685749661873,-0.373361955579689,0.));
#347=DIRECTION('',(0.,0.,-1.));
#348=DIRECTION('',(0.,1.,0.));
#349=DIRECTION('',(0.,0.,-1.));
#350=DIRECTION('',(0.,-1.,0.));
#351=DIRECTION('',(0.,0.,-1.));
#352=DIRECTION('',(-0.99999889596136,0.00148595964285994,0.));
#353=DIRECTION('',(0.,0.,1.));
#354=DIRECTION('',(0.,1.,0.));
#355=DIRECTION('',(0.,0.,-1.));
#356=DIRECTION('',(0.,1.,0.));
#357=DIRECTION('',(0.,-0.0784590957278422,0.996917333733128));
#358=DIRECTION('',(0.,0.0784590957278422,0.996917333733128));
#359=DIRECTION('',(0.,0.,1.));
#360=DIRECTION('',(-1.,0.,0.));
#361=DIRECTION('',(0.,0.,1.));
#362=DIRECTION('',(0.,-1.,-4.27061547373815E-16));
#363=DIRECTION('',(0.,0.,1.));
#364=DIRECTION('',(-1.,0.,0.));
#365=DIRECTION('',(0.,0.,1.));
#366=DIRECTION('',(0.,-1.,-4.27061547373815E-16));
#367=DIRECTION('',(0.,0.,-1.));
#368=DIRECTION('',(0.,1.,0.));
#369=DIRECTION('',(0.,0.,-1.));
#370=DIRECTION('',(0.94673966854674,-0.322000000000014,0.));
#371=DIRECTION('',(0.,0.,-1.));
#372=DIRECTION('',(0.,1.,0.));
#373=DIRECTION('',(0.,0.,-1.));
#374=DIRECTION('',(0.933577982075045,-0.358374317417817,0.));
#375=DIRECTION('',(0.,0.,-1.));
#376=DIRECTION('',(0.,1.,-4.14962578634445E-17));
#377=DIRECTION('',(0.,0.,-1.));
#378=DIRECTION('',(0.930813791005031,-0.365493757094212,0.));
#379=DIRECTION('',(0.,0.,-1.));
#380=DIRECTION('',(6.47937227024391E-5,-0.999999997900887,0.));
#381=DIRECTION('',(0.,0.,-1.));
#382=DIRECTION('',(0.930813791005031,-0.365493757094212,0.));
#383=DIRECTION('',(0.,0.,-1.));
#384=DIRECTION('',(0.,1.,0.));
#385=DIRECTION('',(0.,0.,-1.));
#386=DIRECTION('',(0.933577982075817,-0.358374317415807,0.));
#387=DIRECTION('',(0.,0.,-1.));
#388=DIRECTION('',(6.44853621066812E-5,-0.999999997920819,0.));
#389=DIRECTION('',(0.,0.,-1.));
#390=DIRECTION('',(0.94673966854674,-0.322000000000014,0.));
#391=DIRECTION('',(0.,0.,1.));
#392=DIRECTION('',(0.,-1.,3.06281903277794E-17));
#393=DIRECTION('',(0.,0.,-1.));
#394=DIRECTION('',(0.,1.,0.));
#395=DIRECTION('',(0.,0.,1.));
#396=DIRECTION('',(-1.,0.,0.));
#397=DIRECTION('',(0.,0.,1.));
#398=DIRECTION('',(-1.,0.,0.));
#399=DIRECTION('',(0.,0.,-1.));
#400=DIRECTION('',(0.,1.,0.));
#401=DIRECTION('',(3.82953160747093E-13,-0.144306116415197,0.989533094325381));
#402=DIRECTION('',(-3.82951926350393E-13,0.144306116415197,0.989533094325381));
#403=DIRECTION('',(0.,0.,-1.));
#404=DIRECTION('',(0.,1.,2.84835142979602E-16));
#405=DIRECTION('',(0.,0.,-1.));
#406=DIRECTION('',(0.,1.,2.84835142979602E-16));
#407=CARTESIAN_POINT('',(0.,0.,0.));
#408=CARTESIAN_POINT('',(0.,0.,0.));
#409=CARTESIAN_POINT('',(0.,0.,-100.));
#410=CARTESIAN_POINT('',(0.,0.,0.));
#411=CARTESIAN_POINT('',(0.,0.,-3.2));
#412=CARTESIAN_POINT('',(-25.,0.,-3.2));
#413=CARTESIAN_POINT('',(0.,0.,-3.2));
#414=CARTESIAN_POINT('',(0.,16.3416641016637,-3.2));
#415=CARTESIAN_POINT('',(-1.24149938345436E-11,-16.3416641016637,-3.2));
#416=CARTESIAN_POINT('',(0.,0.,-3.2));
#417=CARTESIAN_POINT('',(0.,0.,-3.2));
#418=CARTESIAN_POINT('',(0.,0.,-19.1));
#419=CARTESIAN_POINT('',(-25.,0.,-19.1));
#420=CARTESIAN_POINT('',(0.,0.,-19.1));
#421=CARTESIAN_POINT('',(-21.5452430944746,-8.0499999999997,-19.1));
#422=CARTESIAN_POINT('',(0.,0.,-19.1));
#423=CARTESIAN_POINT('',(0.,-21.,-42.82207868721));
#424=CARTESIAN_POINT('',(0.,-21.,-42.82207868721));
#425=CARTESIAN_POINT('',(0.,-21.,-21.1));
#426=CARTESIAN_POINT('',(0.,0.,-42.82207868721));
#427=CARTESIAN_POINT('',(0.,21.,-42.82207868721));
#428=CARTESIAN_POINT('',(0.,21.,-42.82207868721));
#429=CARTESIAN_POINT('',(0.,21.,-21.1));
#430=CARTESIAN_POINT('',(0.,0.,-21.1));
#431=CARTESIAN_POINT('',(0.,0.,-15.055));
#432=CARTESIAN_POINT('',(0.,0.,-21.1));
#433=CARTESIAN_POINT('',(0.,0.,-21.1));
#434=CARTESIAN_POINT('',(0.,0.,-42.82207868721));
#435=CARTESIAN_POINT('',(0.,0.,-15.055));
#436=CARTESIAN_POINT('',(9.677420914643E-14,-16.57252684207,-99.07845909573));
#437=CARTESIAN_POINT('',(9.677420914643E-14,-16.4999999999953,-100.));
#438=CARTESIAN_POINT('',(-9.727812699825E-14,16.57252684207,-99.07845909573));
#439=CARTESIAN_POINT('',(-9.727812699825E-14,16.4999999999953,-100.));
#440=CARTESIAN_POINT('',(0.,0.,-100.));
#441=CARTESIAN_POINT('',(0.,0.,-70.95026889147));
#442=CARTESIAN_POINT('',(0.,0.,-100.));
#443=CARTESIAN_POINT('',(0.,0.,-70.95026889147));
#444=CARTESIAN_POINT('',(0.,0.,-100.));
#445=CARTESIAN_POINT('',(0.,0.,-14.477499074759));
#446=CARTESIAN_POINT('',(23.6684917136685,-8.05000000000034,-14.477499074759));
#447=CARTESIAN_POINT('',(0.,0.,51.145));
#448=CARTESIAN_POINT('',(0.,0.,-13.012499984975));
#449=CARTESIAN_POINT('',(20.9705394344476,-8.04999999999944,-13.012499984975));
#450=CARTESIAN_POINT('',(0.,0.,-13.744999529867));
#451=CARTESIAN_POINT('',(0.,0.,-12.51641567691));
#452=CARTESIAN_POINT('',(20.5011737468858,-8.05000000000002,-12.51641567691));
#453=CARTESIAN_POINT('',(0.,0.,-12.51641567691));
#454=CARTESIAN_POINT('',(0.,0.,-9.683584323034));
#455=CARTESIAN_POINT('',(20.5011737468858,-8.05000000000002,-9.683584323034));
#456=CARTESIAN_POINT('',(0.,0.,51.145));
#457=CARTESIAN_POINT('',(0.,0.,-9.187500014953));
#458=CARTESIAN_POINT('',(20.9705394345863,-8.05000000000086,-9.187500014953));
#459=CARTESIAN_POINT('',(0.,0.,-9.683584323034));
#460=CARTESIAN_POINT('',(0.,0.,-7.72250092524));
#461=CARTESIAN_POINT('',(23.6684917136685,-8.05000000000034,-7.72250092524));
#462=CARTESIAN_POINT('',(0.,0.,-8.4550004701));
#463=CARTESIAN_POINT('',(0.,0.,51.145));
#464=CARTESIAN_POINT('',(0.,0.,47.8));
#465=CARTESIAN_POINT('',(-1.89631296808341E-11,-8.90420498141354,47.8));
#466=CARTESIAN_POINT('',(1.89631908060644E-11,8.90420498141354,47.8));
#467=CARTESIAN_POINT('',(0.,0.,47.8));
#468=CARTESIAN_POINT('',(0.,0.,47.8));
#469=CARTESIAN_POINT('',(0.,16.04999903812,-1.2));
#470=CARTESIAN_POINT('',(0.,-16.04999903812,-1.2));
#471=CARTESIAN_POINT('',(0.,0.,23.04329183492));
#472=CARTESIAN_POINT('',(0.,0.,23.04329183492));
#473=MECHANICAL_DESIGN_GEOMETRIC_PRESENTATION_REPRESENTATION('',(#262,#263,
#264,#265),#474);
#474=(
GEOMETRIC_REPRESENTATION_CONTEXT(3)
GLOBAL_UNCERTAINTY_ASSIGNED_CONTEXT((#475))
GLOBAL_UNIT_ASSIGNED_CONTEXT((#481,#477,#476))
REPRESENTATION_CONTEXT('69871.30AD-SC.18','TOP_LEVEL_ASSEMBLY_PART')
);
#475=UNCERTAINTY_MEASURE_WITH_UNIT(LENGTH_MEASURE(2.E-5),#481,
'DISTANCE_ACCURACY_VALUE','Maximum Tolerance applied to model');
#476=(
NAMED_UNIT(*)
SI_UNIT($,.STERADIAN.)
SOLID_ANGLE_UNIT()
);
#477=(
CONVERSION_BASED_UNIT('DEGREE',#479)
NAMED_UNIT(#478)
PLANE_ANGLE_UNIT()
);
#478=DIMENSIONAL_EXPONENTS(0.,0.,0.,0.,0.,0.,0.);
#479=PLANE_ANGLE_MEASURE_WITH_UNIT(PLANE_ANGLE_MEASURE(0.0174532925),#480);
#480=(
NAMED_UNIT(*)
PLANE_ANGLE_UNIT()
SI_UNIT($,.RADIAN.)
);
#481=(
LENGTH_UNIT()
NAMED_UNIT(*)
SI_UNIT(.MILLI.,.METRE.)
);
ENDSEC;
END-ISO-10303-21;
