ISO-10303-21;
HEADER;
/* Generated by software containing ST-Developer
 * from STEP Tools, Inc. (www.steptools.com) 
 */
/* OPTION: using custom schema-name function */

FILE_DESCRIPTION(
/* description */ (''),
/* implementation_level */ '2;1');

FILE_NAME(
/* name */ '69871.40ADB-SC.06.120.stp',
/* time_stamp */ '2024-06-28T07:07:50+02:00',
/* author */ (''),
/* organization */ (''),
/* preprocessor_version */ 'ST-DEVELOPER v16.7',
/* originating_system */ 'SIEMENS PLM Software NX 12.0',
/* authorisation */ '');

FILE_SCHEMA (('AUTOMOTIVE_DESIGN { 1 0 10303 214 3 1 1 1 }'));
ENDSEC;

DATA;
#10=CONSTRUCTIVE_GEOMETRY_REPRESENTATION_RELATIONSHIP(
'supplemental geometry','',#32,#11);
#11=CONSTRUCTIVE_GEOMETRY_REPRESENTATION('supplemental geometry',(#316,
#317,#318),#546);
#12=PROPERTY_DEFINITION_REPRESENTATION(#16,#14);
#13=PROPERTY_DEFINITION_REPRESENTATION(#17,#15);
#14=REPRESENTATION('',(#18),#546);
#15=REPRESENTATION('',(#19),#546);
#16=PROPERTY_DEFINITION('pmi validation property','',#23);
#17=PROPERTY_DEFINITION('pmi validation property','',#23);
#18=VALUE_REPRESENTATION_ITEM('number of annotations',COUNT_MEASURE(0.));
#19=VALUE_REPRESENTATION_ITEM('number of views',COUNT_MEASURE(0.));
#20=SHAPE_REPRESENTATION_RELATIONSHIP('None',
'relationship between pf661D7883C3rt3i-None and pf661D7883C3rt3i-None',
#32,#21);
#21=ADVANCED_BREP_SHAPE_REPRESENTATION('pf661D7883C3rt3i-None',(#38),#546);
#22=SHAPE_DEFINITION_REPRESENTATION(#23,#32);
#23=PRODUCT_DEFINITION_SHAPE('','',#24);
#24=PRODUCT_DEFINITION(' ','',#26,#25);
#25=PRODUCT_DEFINITION_CONTEXT('part definition',#31,'design');
#26=PRODUCT_DEFINITION_FORMATION_WITH_SPECIFIED_SOURCE(' ',' ',#28,
 .NOT_KNOWN.);
#27=PRODUCT_RELATED_PRODUCT_CATEGORY('part','',(#28));
#28=PRODUCT('pf661D7883C3rt3i','pf661D7883C3rt3i',' ',(#29));
#29=PRODUCT_CONTEXT(' ',#31,'mechanical');
#30=APPLICATION_PROTOCOL_DEFINITION('international standard',
'automotive_design',2010,#31);
#31=APPLICATION_CONTEXT(
'core data for automotive mechanical design processes');
#32=SHAPE_REPRESENTATION('pf661D7883C3rt3i-None',(#315),#546);
#33=SURFACE_STYLE_USAGE(.BOTH.,#34);
#34=SURFACE_SIDE_STYLE('',(#35));
#35=SURFACE_STYLE_FILL_AREA(#36);
#36=FILL_AREA_STYLE('',(#37));
#37=FILL_AREA_STYLE_COLOUR('',#311);
#38=MANIFOLD_SOLID_BREP('',#39);
#39=CLOSED_SHELL('',(#77,#78,#79,#80,#81,#82,#83,#84,#85,#86,#87,#88,#89,
#90,#91,#92,#93,#94,#95,#96,#97));
#40=LINE('',#516,#46);
#41=LINE('',#520,#47);
#42=LINE('',#524,#48);
#43=LINE('',#526,#49);
#44=LINE('',#536,#50);
#45=LINE('',#538,#51);
#46=VECTOR('',#428,1.);
#47=VECTOR('',#431,1.);
#48=VECTOR('',#438,1.);
#49=VECTOR('',#439,1.);
#50=VECTOR('',#456,1.);
#51=VECTOR('',#457,1.);
#52=FACE_OUTER_BOUND('',#148,.T.);
#53=FACE_OUTER_BOUND('',#149,.T.);
#54=FACE_OUTER_BOUND('',#150,.T.);
#55=FACE_OUTER_BOUND('',#151,.T.);
#56=FACE_OUTER_BOUND('',#152,.T.);
#57=FACE_OUTER_BOUND('',#153,.T.);
#58=FACE_OUTER_BOUND('',#154,.T.);
#59=FACE_OUTER_BOUND('',#155,.T.);
#60=FACE_OUTER_BOUND('',#156,.T.);
#61=FACE_OUTER_BOUND('',#157,.T.);
#62=TOROIDAL_SURFACE('',#334,28.5,0.5);
#63=TOROIDAL_SURFACE('',#338,28.5,0.5);
#64=TOROIDAL_SURFACE('',#355,16.5,3.);
#65=TOROIDAL_SURFACE('',#357,16.5,3.);
#66=CONICAL_SURFACE('',#330,30.3362976321,60.);
#67=CONICAL_SURFACE('',#342,30.3362976321,60.);
#68=CONICAL_SURFACE('',#348,12.03626342104,4.5);
#69=CONICAL_SURFACE('',#350,12.03626342104,4.5);
#70=CONICAL_SURFACE('',#360,17.39989973582,8.2971);
#71=CONICAL_SURFACE('',#362,17.39989973582,8.2971);
#72=CYLINDRICAL_SURFACE('',#328,31.775);
#73=CYLINDRICAL_SURFACE('',#336,28.);
#74=CYLINDRICAL_SURFACE('',#343,31.775);
#75=CYLINDRICAL_SURFACE('',#352,13.5);
#76=CYLINDRICAL_SURFACE('',#358,13.5);
#77=ADVANCED_FACE('',(#104,#105),#98,.F.);
#78=ADVANCED_FACE('',(#106,#107),#99,.T.);
#79=ADVANCED_FACE('',(#108,#109),#72,.T.);
#80=ADVANCED_FACE('',(#110,#111),#66,.T.);
#81=ADVANCED_FACE('',(#112,#113),#100,.F.);
#82=ADVANCED_FACE('',(#114,#115),#62,.F.);
#83=ADVANCED_FACE('',(#116,#117),#73,.T.);
#84=ADVANCED_FACE('',(#118,#119),#63,.F.);
#85=ADVANCED_FACE('',(#120,#121),#101,.T.);
#86=ADVANCED_FACE('',(#122,#123),#67,.T.);
#87=ADVANCED_FACE('',(#124,#125),#74,.T.);
#88=ADVANCED_FACE('',(#52),#102,.T.);
#89=ADVANCED_FACE('',(#53),#68,.T.);
#90=ADVANCED_FACE('',(#54),#69,.T.);
#91=ADVANCED_FACE('',(#55),#75,.T.);
#92=ADVANCED_FACE('',(#56),#64,.F.);
#93=ADVANCED_FACE('',(#57),#65,.F.);
#94=ADVANCED_FACE('',(#58),#76,.T.);
#95=ADVANCED_FACE('',(#59),#70,.T.);
#96=ADVANCED_FACE('',(#60),#71,.T.);
#97=ADVANCED_FACE('',(#61),#103,.F.);
#98=PLANE('',#322);
#99=PLANE('',#326);
#100=PLANE('',#332);
#101=PLANE('',#340);
#102=PLANE('',#346);
#103=PLANE('',#363);
#104=FACE_BOUND('',#126,.T.);
#105=FACE_BOUND('',#127,.T.);
#106=FACE_BOUND('',#128,.T.);
#107=FACE_BOUND('',#129,.T.);
#108=FACE_BOUND('',#130,.T.);
#109=FACE_BOUND('',#131,.T.);
#110=FACE_BOUND('',#132,.T.);
#111=FACE_BOUND('',#133,.T.);
#112=FACE_BOUND('',#134,.T.);
#113=FACE_BOUND('',#135,.T.);
#114=FACE_BOUND('',#136,.T.);
#115=FACE_BOUND('',#137,.T.);
#116=FACE_BOUND('',#138,.T.);
#117=FACE_BOUND('',#139,.T.);
#118=FACE_BOUND('',#140,.T.);
#119=FACE_BOUND('',#141,.T.);
#120=FACE_BOUND('',#142,.T.);
#121=FACE_BOUND('',#143,.T.);
#122=FACE_BOUND('',#144,.T.);
#123=FACE_BOUND('',#145,.T.);
#124=FACE_BOUND('',#146,.T.);
#125=FACE_BOUND('',#147,.T.);
#126=EDGE_LOOP('',(#158));
#127=EDGE_LOOP('',(#159,#160));
#128=EDGE_LOOP('',(#161));
#129=EDGE_LOOP('',(#162,#163));
#130=EDGE_LOOP('',(#164));
#131=EDGE_LOOP('',(#165));
#132=EDGE_LOOP('',(#166));
#133=EDGE_LOOP('',(#167));
#134=EDGE_LOOP('',(#168));
#135=EDGE_LOOP('',(#169));
#136=EDGE_LOOP('',(#170));
#137=EDGE_LOOP('',(#171));
#138=EDGE_LOOP('',(#172));
#139=EDGE_LOOP('',(#173));
#140=EDGE_LOOP('',(#174));
#141=EDGE_LOOP('',(#175));
#142=EDGE_LOOP('',(#176));
#143=EDGE_LOOP('',(#177));
#144=EDGE_LOOP('',(#178));
#145=EDGE_LOOP('',(#179));
#146=EDGE_LOOP('',(#180));
#147=EDGE_LOOP('',(#181));
#148=EDGE_LOOP('',(#182,#183));
#149=EDGE_LOOP('',(#184,#185,#186,#187));
#150=EDGE_LOOP('',(#188,#189,#190,#191));
#151=EDGE_LOOP('',(#192,#193,#194,#195));
#152=EDGE_LOOP('',(#196,#197,#198,#199));
#153=EDGE_LOOP('',(#200,#201,#202,#203));
#154=EDGE_LOOP('',(#204,#205,#206,#207));
#155=EDGE_LOOP('',(#208,#209,#210,#211));
#156=EDGE_LOOP('',(#212,#213,#214,#215));
#157=EDGE_LOOP('',(#216,#217));
#158=ORIENTED_EDGE('',*,*,#240,.T.);
#159=ORIENTED_EDGE('',*,*,#241,.T.);
#160=ORIENTED_EDGE('',*,*,#242,.T.);
#161=ORIENTED_EDGE('',*,*,#243,.F.);
#162=ORIENTED_EDGE('',*,*,#244,.F.);
#163=ORIENTED_EDGE('',*,*,#245,.F.);
#164=ORIENTED_EDGE('',*,*,#246,.T.);
#165=ORIENTED_EDGE('',*,*,#243,.T.);
#166=ORIENTED_EDGE('',*,*,#247,.T.);
#167=ORIENTED_EDGE('',*,*,#246,.F.);
#168=ORIENTED_EDGE('',*,*,#248,.T.);
#169=ORIENTED_EDGE('',*,*,#247,.F.);
#170=ORIENTED_EDGE('',*,*,#249,.T.);
#171=ORIENTED_EDGE('',*,*,#248,.F.);
#172=ORIENTED_EDGE('',*,*,#250,.T.);
#173=ORIENTED_EDGE('',*,*,#249,.F.);
#174=ORIENTED_EDGE('',*,*,#251,.T.);
#175=ORIENTED_EDGE('',*,*,#250,.F.);
#176=ORIENTED_EDGE('',*,*,#252,.T.);
#177=ORIENTED_EDGE('',*,*,#251,.F.);
#178=ORIENTED_EDGE('',*,*,#253,.T.);
#179=ORIENTED_EDGE('',*,*,#252,.F.);
#180=ORIENTED_EDGE('',*,*,#240,.F.);
#181=ORIENTED_EDGE('',*,*,#253,.F.);
#182=ORIENTED_EDGE('',*,*,#254,.F.);
#183=ORIENTED_EDGE('',*,*,#255,.F.);
#184=ORIENTED_EDGE('',*,*,#256,.T.);
#185=ORIENTED_EDGE('',*,*,#257,.F.);
#186=ORIENTED_EDGE('',*,*,#258,.F.);
#187=ORIENTED_EDGE('',*,*,#255,.T.);
#188=ORIENTED_EDGE('',*,*,#258,.T.);
#189=ORIENTED_EDGE('',*,*,#259,.T.);
#190=ORIENTED_EDGE('',*,*,#256,.F.);
#191=ORIENTED_EDGE('',*,*,#254,.T.);
#192=ORIENTED_EDGE('',*,*,#260,.F.);
#193=ORIENTED_EDGE('',*,*,#259,.F.);
#194=ORIENTED_EDGE('',*,*,#261,.T.);
#195=ORIENTED_EDGE('',*,*,#262,.T.);
#196=ORIENTED_EDGE('',*,*,#263,.T.);
#197=ORIENTED_EDGE('',*,*,#262,.F.);
#198=ORIENTED_EDGE('',*,*,#264,.F.);
#199=ORIENTED_EDGE('',*,*,#245,.T.);
#200=ORIENTED_EDGE('',*,*,#264,.T.);
#201=ORIENTED_EDGE('',*,*,#265,.F.);
#202=ORIENTED_EDGE('',*,*,#263,.F.);
#203=ORIENTED_EDGE('',*,*,#244,.T.);
#204=ORIENTED_EDGE('',*,*,#261,.F.);
#205=ORIENTED_EDGE('',*,*,#257,.T.);
#206=ORIENTED_EDGE('',*,*,#260,.T.);
#207=ORIENTED_EDGE('',*,*,#265,.T.);
#208=ORIENTED_EDGE('',*,*,#266,.F.);
#209=ORIENTED_EDGE('',*,*,#242,.F.);
#210=ORIENTED_EDGE('',*,*,#267,.T.);
#211=ORIENTED_EDGE('',*,*,#268,.F.);
#212=ORIENTED_EDGE('',*,*,#267,.F.);
#213=ORIENTED_EDGE('',*,*,#241,.F.);
#214=ORIENTED_EDGE('',*,*,#266,.T.);
#215=ORIENTED_EDGE('',*,*,#269,.F.);
#216=ORIENTED_EDGE('',*,*,#269,.T.);
#217=ORIENTED_EDGE('',*,*,#268,.T.);
#218=VERTEX_POINT('',#473);
#219=VERTEX_POINT('',#475);
#220=VERTEX_POINT('',#476);
#221=VERTEX_POINT('',#480);
#222=VERTEX_POINT('',#482);
#223=VERTEX_POINT('',#483);
#224=VERTEX_POINT('',#487);
#225=VERTEX_POINT('',#490);
#226=VERTEX_POINT('',#493);
#227=VERTEX_POINT('',#496);
#228=VERTEX_POINT('',#499);
#229=VERTEX_POINT('',#502);
#230=VERTEX_POINT('',#505);
#231=VERTEX_POINT('',#508);
#232=VERTEX_POINT('',#512);
#233=VERTEX_POINT('',#513);
#234=VERTEX_POINT('',#517);
#235=VERTEX_POINT('',#519);
#236=VERTEX_POINT('',#525);
#237=VERTEX_POINT('',#527);
#238=VERTEX_POINT('',#537);
#239=VERTEX_POINT('',#539);
#240=EDGE_CURVE('',#218,#218,#270,.T.);
#241=EDGE_CURVE('',#219,#220,#271,.T.);
#242=EDGE_CURVE('',#220,#219,#272,.T.);
#243=EDGE_CURVE('',#221,#221,#273,.T.);
#244=EDGE_CURVE('',#222,#223,#274,.T.);
#245=EDGE_CURVE('',#223,#222,#275,.T.);
#246=EDGE_CURVE('',#224,#224,#276,.T.);
#247=EDGE_CURVE('',#225,#225,#277,.T.);
#248=EDGE_CURVE('',#226,#226,#278,.T.);
#249=EDGE_CURVE('',#227,#227,#279,.T.);
#250=EDGE_CURVE('',#228,#228,#280,.T.);
#251=EDGE_CURVE('',#229,#229,#281,.T.);
#252=EDGE_CURVE('',#230,#230,#282,.T.);
#253=EDGE_CURVE('',#231,#231,#283,.T.);
#254=EDGE_CURVE('',#232,#233,#284,.T.);
#255=EDGE_CURVE('',#233,#232,#285,.T.);
#256=EDGE_CURVE('',#232,#234,#40,.T.);
#257=EDGE_CURVE('',#235,#234,#286,.T.);
#258=EDGE_CURVE('',#233,#235,#41,.T.);
#259=EDGE_CURVE('',#235,#234,#287,.T.);
#260=EDGE_CURVE('',#234,#236,#42,.T.);
#261=EDGE_CURVE('',#235,#237,#43,.T.);
#262=EDGE_CURVE('',#237,#236,#288,.T.);
#263=EDGE_CURVE('',#222,#236,#289,.T.);
#264=EDGE_CURVE('',#223,#237,#290,.T.);
#265=EDGE_CURVE('',#236,#237,#291,.T.);
#266=EDGE_CURVE('',#219,#238,#44,.T.);
#267=EDGE_CURVE('',#220,#239,#45,.T.);
#268=EDGE_CURVE('',#238,#239,#292,.T.);
#269=EDGE_CURVE('',#239,#238,#293,.T.);
#270=CIRCLE('',#319,31.775);
#271=CIRCLE('',#320,22.6916641016621);
#272=CIRCLE('',#321,22.6916641016621);
#273=CIRCLE('',#323,31.775);
#274=CIRCLE('',#324,16.5);
#275=CIRCLE('',#325,16.5);
#276=CIRCLE('',#327,31.775);
#277=CIRCLE('',#329,28.89759526419);
#278=CIRCLE('',#331,28.5);
#279=CIRCLE('',#333,28.);
#280=CIRCLE('',#335,28.);
#281=CIRCLE('',#337,28.5);
#282=CIRCLE('',#339,28.89759526419);
#283=CIRCLE('',#341,31.775);
#284=CIRCLE('',#344,10.5000000000024);
#285=CIRCLE('',#345,10.5000000000024);
#286=CIRCLE('',#347,13.5);
#287=CIRCLE('',#349,13.5);
#288=CIRCLE('',#351,13.5);
#289=CIRCLE('',#353,3.);
#290=CIRCLE('',#354,3.);
#291=CIRCLE('',#356,13.5);
#292=CIRCLE('',#359,12.2500548269618);
#293=CIRCLE('',#361,12.2500548269618);
#294=INVISIBILITY((#295,#296,#297));
#295=PRESENTATION_LAYER_ASSIGNMENT('100','Layer 100',(#316));
#296=PRESENTATION_LAYER_ASSIGNMENT('101','Layer 101',(#317));
#297=PRESENTATION_LAYER_ASSIGNMENT('102','Layer 102',(#318));
#298=PRESENTATION_LAYER_ASSIGNMENT('98','Layer 98',(#38));
#299=STYLED_ITEM('',(#303),#316);
#300=STYLED_ITEM('',(#304),#317);
#301=STYLED_ITEM('',(#305),#318);
#302=STYLED_ITEM('',(#306),#38);
#303=PRESENTATION_STYLE_ASSIGNMENT((#307));
#304=PRESENTATION_STYLE_ASSIGNMENT((#308));
#305=PRESENTATION_STYLE_ASSIGNMENT((#309));
#306=PRESENTATION_STYLE_ASSIGNMENT((#33));
#307=CURVE_STYLE('',#312,POSITIVE_LENGTH_MEASURE(0.7),#310);
#308=CURVE_STYLE('',#313,POSITIVE_LENGTH_MEASURE(0.7),#310);
#309=CURVE_STYLE('',#314,POSITIVE_LENGTH_MEASURE(0.7),#310);
#310=COLOUR_RGB('Medium Maroon',0.6,0.4,0.4);
#311=COLOUR_RGB('Medium Gray',0.490196078431373,0.490196078431373,0.490196078431373);
#312=DRAUGHTING_PRE_DEFINED_CURVE_FONT('continuous');
#313=DRAUGHTING_PRE_DEFINED_CURVE_FONT('continuous');
#314=DRAUGHTING_PRE_DEFINED_CURVE_FONT('continuous');
#315=AXIS2_PLACEMENT_3D('',#468,#364,#365);
#316=AXIS2_PLACEMENT_3D('PCS',#469,#366,#367);
#317=AXIS2_PLACEMENT_3D('CSW',#470,#368,#369);
#318=AXIS2_PLACEMENT_3D('MCS',#471,#370,#371);
#319=AXIS2_PLACEMENT_3D('',#472,#372,#373);
#320=AXIS2_PLACEMENT_3D('',#474,#374,#375);
#321=AXIS2_PLACEMENT_3D('',#477,#376,#377);
#322=AXIS2_PLACEMENT_3D('',#478,#378,#379);
#323=AXIS2_PLACEMENT_3D('',#479,#380,#381);
#324=AXIS2_PLACEMENT_3D('',#481,#382,#383);
#325=AXIS2_PLACEMENT_3D('',#484,#384,#385);
#326=AXIS2_PLACEMENT_3D('',#485,#386,#387);
#327=AXIS2_PLACEMENT_3D('',#486,#388,#389);
#328=AXIS2_PLACEMENT_3D('',#488,#390,#391);
#329=AXIS2_PLACEMENT_3D('',#489,#392,#393);
#330=AXIS2_PLACEMENT_3D('',#491,#394,#395);
#331=AXIS2_PLACEMENT_3D('',#492,#396,#397);
#332=AXIS2_PLACEMENT_3D('',#494,#398,#399);
#333=AXIS2_PLACEMENT_3D('',#495,#400,#401);
#334=AXIS2_PLACEMENT_3D('',#497,#402,#403);
#335=AXIS2_PLACEMENT_3D('',#498,#404,#405);
#336=AXIS2_PLACEMENT_3D('',#500,#406,#407);
#337=AXIS2_PLACEMENT_3D('',#501,#408,#409);
#338=AXIS2_PLACEMENT_3D('',#503,#410,#411);
#339=AXIS2_PLACEMENT_3D('',#504,#412,#413);
#340=AXIS2_PLACEMENT_3D('',#506,#414,#415);
#341=AXIS2_PLACEMENT_3D('',#507,#416,#417);
#342=AXIS2_PLACEMENT_3D('',#509,#418,#419);
#343=AXIS2_PLACEMENT_3D('',#510,#420,#421);
#344=AXIS2_PLACEMENT_3D('',#511,#422,#423);
#345=AXIS2_PLACEMENT_3D('',#514,#424,#425);
#346=AXIS2_PLACEMENT_3D('',#515,#426,#427);
#347=AXIS2_PLACEMENT_3D('',#518,#429,#430);
#348=AXIS2_PLACEMENT_3D('',#521,#432,#433);
#349=AXIS2_PLACEMENT_3D('',#522,#434,#435);
#350=AXIS2_PLACEMENT_3D('',#523,#436,#437);
#351=AXIS2_PLACEMENT_3D('',#528,#440,#441);
#352=AXIS2_PLACEMENT_3D('',#529,#442,#443);
#353=AXIS2_PLACEMENT_3D('',#530,#444,#445);
#354=AXIS2_PLACEMENT_3D('',#531,#446,#447);
#355=AXIS2_PLACEMENT_3D('',#532,#448,#449);
#356=AXIS2_PLACEMENT_3D('',#533,#450,#451);
#357=AXIS2_PLACEMENT_3D('',#534,#452,#453);
#358=AXIS2_PLACEMENT_3D('',#535,#454,#455);
#359=AXIS2_PLACEMENT_3D('',#540,#458,#459);
#360=AXIS2_PLACEMENT_3D('',#541,#460,#461);
#361=AXIS2_PLACEMENT_3D('',#542,#462,#463);
#362=AXIS2_PLACEMENT_3D('',#543,#464,#465);
#363=AXIS2_PLACEMENT_3D('',#544,#466,#467);
#364=DIRECTION('',(0.,0.,1.));
#365=DIRECTION('',(1.,0.,0.));
#366=DIRECTION('',(0.,0.,1.));
#367=DIRECTION('',(1.,0.,0.));
#368=DIRECTION('',(0.,0.,1.));
#369=DIRECTION('',(1.,0.,0.));
#370=DIRECTION('',(0.,0.,1.));
#371=DIRECTION('',(1.,0.,0.));
#372=DIRECTION('',(0.,0.,1.));
#373=DIRECTION('',(-1.,0.,0.));
#374=DIRECTION('',(0.,0.,-1.));
#375=DIRECTION('',(-1.,0.,0.));
#376=DIRECTION('',(0.,0.,-1.));
#377=DIRECTION('',(-1.,0.,0.));
#378=DIRECTION('',(0.,0.,-1.));
#379=DIRECTION('',(0.,1.,0.));
#380=DIRECTION('',(0.,0.,1.));
#381=DIRECTION('',(-1.,0.,0.));
#382=DIRECTION('',(0.,0.,-1.));
#383=DIRECTION('',(0.,-1.,0.));
#384=DIRECTION('',(0.,0.,-1.));
#385=DIRECTION('',(0.,1.,0.));
#386=DIRECTION('',(0.,0.,-1.));
#387=DIRECTION('',(0.,1.,0.));
#388=DIRECTION('',(0.,0.,-1.));
#389=DIRECTION('',(0.967376300599849,-0.253343823760813,0.));
#390=DIRECTION('',(0.,0.,-1.));
#391=DIRECTION('',(0.,1.,0.));
#392=DIRECTION('',(0.,0.,-1.));
#393=DIRECTION('',(0.960415959422322,-0.278569892283607,0.));
#394=DIRECTION('',(0.,0.,-1.));
#395=DIRECTION('',(0.,1.,4.1340739373327E-17));
#396=DIRECTION('',(0.,0.,-1.));
#397=DIRECTION('',(0.959280213898982,-0.282456140350895,0.));
#398=DIRECTION('',(0.,0.,-1.));
#399=DIRECTION('',(0.,1.,0.));
#400=DIRECTION('',(0.,0.,-1.));
#401=DIRECTION('',(0.957780637724524,-0.287500000000007,0.));
#402=DIRECTION('',(0.,0.,-1.));
#403=DIRECTION('',(-0.00415426945299211,0.999991370985426,0.));
#404=DIRECTION('',(0.,0.,-1.));
#405=DIRECTION('',(0.957780637724524,-0.287500000000007,0.));
#406=DIRECTION('',(0.,0.,-1.));
#407=DIRECTION('',(0.,1.,0.));
#408=DIRECTION('',(0.,0.,-1.));
#409=DIRECTION('',(0.959280213898982,-0.282456140350895,0.));
#410=DIRECTION('',(0.,0.,-1.));
#411=DIRECTION('',(-0.0039631344949438,0.999992146751651,0.));
#412=DIRECTION('',(0.,0.,-1.));
#413=DIRECTION('',(0.960415959422322,-0.278569892283607,0.));
#414=DIRECTION('',(0.,0.,-1.));
#415=DIRECTION('',(0.,1.,0.));
#416=DIRECTION('',(0.,0.,-1.));
#417=DIRECTION('',(0.967376300599849,-0.253343823760813,0.));
#418=DIRECTION('',(0.,0.,1.));
#419=DIRECTION('',(0.,-1.,2.65761895971388E-17));
#420=DIRECTION('',(0.,0.,-1.));
#421=DIRECTION('',(0.,1.,0.));
#422=DIRECTION('',(0.,0.,1.));
#423=DIRECTION('',(-1.,0.,0.));
#424=DIRECTION('',(0.,0.,1.));
#425=DIRECTION('',(-1.,0.,0.));
#426=DIRECTION('',(0.,0.,-1.));
#427=DIRECTION('',(0.,1.,0.));
#428=DIRECTION('',(-1.19288683665703E-13,-0.0784590957278522,0.996917333733127));
#429=DIRECTION('',(0.,0.,1.));
#430=DIRECTION('',(0.,1.,0.));
#431=DIRECTION('',(1.19297451861003E-13,0.0784590957278522,0.996917333733127));
#432=DIRECTION('',(0.,0.,1.));
#433=DIRECTION('',(0.,-1.,-4.58830667147697E-16));
#434=DIRECTION('',(0.,0.,-1.));
#435=DIRECTION('',(0.,1.,0.));
#436=DIRECTION('',(0.,0.,1.));
#437=DIRECTION('',(0.,-1.,-4.58830667147697E-16));
#438=DIRECTION('',(-1.187046757052E-13,0.,1.));
#439=DIRECTION('',(1.186728065798E-13,0.,1.));
#440=DIRECTION('',(0.,0.,-1.));
#441=DIRECTION('',(0.,1.,0.));
#442=DIRECTION('',(0.,0.,-1.));
#443=DIRECTION('',(0.,1.,0.));
#444=DIRECTION('',(-1.,-1.587133202641E-13,0.));
#445=DIRECTION('',(-1.80123240025464E-26,1.13335267097151E-13,1.));
#446=DIRECTION('',(1.,1.588191383961E-13,0.));
#447=DIRECTION('',(1.80123240025464E-26,-1.13335267097151E-13,1.));
#448=DIRECTION('',(0.,0.,-1.));
#449=DIRECTION('',(0.00821976346203879,-0.999966217173674,0.));
#450=DIRECTION('',(0.,0.,-1.));
#451=DIRECTION('',(0.,-1.,0.));
#452=DIRECTION('',(0.,0.,-1.));
#453=DIRECTION('',(-0.00821976346203879,0.999966217173674,0.));
#454=DIRECTION('',(0.,0.,-1.));
#455=DIRECTION('',(0.,1.,0.));
#456=DIRECTION('',(1.33168609664097E-13,-0.144306116415197,0.989533094325381));
#457=DIRECTION('',(-1.33167879821197E-13,0.144306116415197,0.989533094325381));
#458=DIRECTION('',(0.,0.,1.));
#459=DIRECTION('',(-1.,0.,0.));
#460=DIRECTION('',(0.,0.,-1.));
#461=DIRECTION('',(0.,1.,-2.55055708228373E-16));
#462=DIRECTION('',(0.,0.,1.));
#463=DIRECTION('',(-1.,0.,0.));
#464=DIRECTION('',(0.,0.,-1.));
#465=DIRECTION('',(0.,1.,-2.55055708228373E-16));
#466=DIRECTION('',(0.,0.,-1.));
#467=DIRECTION('',(0.,1.,0.));
#468=CARTESIAN_POINT('',(0.,0.,0.));
#469=CARTESIAN_POINT('',(0.,0.,0.));
#470=CARTESIAN_POINT('',(0.,0.,-120.));
#471=CARTESIAN_POINT('',(0.,0.,0.));
#472=CARTESIAN_POINT('',(0.,0.,-3.19999999999999));
#473=CARTESIAN_POINT('',(-31.775,0.,-3.19999999999999));
#474=CARTESIAN_POINT('',(0.,0.,-3.2));
#475=CARTESIAN_POINT('',(0.,22.6916641016621,-3.2));
#476=CARTESIAN_POINT('',(-6.12411196672187E-12,-22.6916641016621,-3.2));
#477=CARTESIAN_POINT('',(0.,0.,-3.2));
#478=CARTESIAN_POINT('',(0.,0.,-3.2));
#479=CARTESIAN_POINT('',(0.,0.,-19.1));
#480=CARTESIAN_POINT('',(-31.775,0.,-19.1));
#481=CARTESIAN_POINT('',(0.,0.,-19.1));
#482=CARTESIAN_POINT('',(0.,-16.5,-19.1));
#483=CARTESIAN_POINT('',(0.,16.5,-19.1));
#484=CARTESIAN_POINT('',(0.,0.,-19.1));
#485=CARTESIAN_POINT('',(0.,0.,-19.1));
#486=CARTESIAN_POINT('',(0.,0.,-14.636270398786));
#487=CARTESIAN_POINT('',(30.7383819515602,-8.04999999999983,-14.636270398786));
#488=CARTESIAN_POINT('',(0.,0.,72.775));
#489=CARTESIAN_POINT('',(0.,0.,-12.975));
#490=CARTESIAN_POINT('',(27.753711680655,-8.05000000000067,-12.975));
#491=CARTESIAN_POINT('',(0.,0.,-13.805635199393));
#492=CARTESIAN_POINT('',(0.,0.,-12.975));
#493=CARTESIAN_POINT('',(27.339486096121,-8.0500000000005,-12.975));
#494=CARTESIAN_POINT('',(0.,0.,-12.975));
#495=CARTESIAN_POINT('',(0.,0.,-12.475));
#496=CARTESIAN_POINT('',(26.8178578562867,-8.0500000000002,-12.475));
#497=CARTESIAN_POINT('',(0.,0.,-12.475));
#498=CARTESIAN_POINT('',(0.,0.,-9.725));
#499=CARTESIAN_POINT('',(26.8178578562867,-8.0500000000002,-9.725));
#500=CARTESIAN_POINT('',(0.,0.,72.775));
#501=CARTESIAN_POINT('',(0.,0.,-9.225));
#502=CARTESIAN_POINT('',(27.339486096121,-8.0500000000005,-9.225));
#503=CARTESIAN_POINT('',(0.,0.,-9.725));
#504=CARTESIAN_POINT('',(0.,0.,-9.225));
#505=CARTESIAN_POINT('',(27.753711680655,-8.05000000000067,-9.225));
#506=CARTESIAN_POINT('',(0.,0.,-9.225));
#507=CARTESIAN_POINT('',(0.,0.,-7.56372960121));
#508=CARTESIAN_POINT('',(30.7383819515602,-8.04999999999983,-7.56372960121));
#509=CARTESIAN_POINT('',(0.,0.,-8.39436480061));
#510=CARTESIAN_POINT('',(0.,0.,72.775));
#511=CARTESIAN_POINT('',(0.,0.,-120.));
#512=CARTESIAN_POINT('',(4.55952663435474E-12,-10.4999999999952,-120.));
#513=CARTESIAN_POINT('',(-4.55986189931611E-12,10.4999999999952,-120.));
#514=CARTESIAN_POINT('',(0.,0.,-120.));
#515=CARTESIAN_POINT('',(0.,0.,-120.));
#516=CARTESIAN_POINT('',(4.449257309412E-12,-10.57252684207,-119.07845909573));
#517=CARTESIAN_POINT('',(0.,-13.5,-81.88138579148));
#518=CARTESIAN_POINT('',(0.,0.,-81.88138579148));
#519=CARTESIAN_POINT('',(0.,13.5,-81.88138579148));
#520=CARTESIAN_POINT('',(-4.449584469137E-12,10.57252684207,-119.07845909573));
#521=CARTESIAN_POINT('',(0.,0.,-100.4799224436));
#522=CARTESIAN_POINT('',(0.,0.,-81.88138579148));
#523=CARTESIAN_POINT('',(0.,0.,-100.4799224436));
#524=CARTESIAN_POINT('',(0.,-13.5,-81.88138579148));
#525=CARTESIAN_POINT('',(0.,-13.5,-22.1));
#526=CARTESIAN_POINT('',(0.,13.5,-81.88138579148));
#527=CARTESIAN_POINT('',(0.,13.5,-22.1));
#528=CARTESIAN_POINT('',(0.,0.,-22.1));
#529=CARTESIAN_POINT('',(0.,0.,-14.055));
#530=CARTESIAN_POINT('',(2.618738559335E-12,-16.5,-22.1));
#531=CARTESIAN_POINT('',(-2.620514916174E-12,16.5,-22.1));
#532=CARTESIAN_POINT('',(0.,0.,-22.1));
#533=CARTESIAN_POINT('',(0.,0.,-22.1));
#534=CARTESIAN_POINT('',(0.,0.,-22.1));
#535=CARTESIAN_POINT('',(0.,0.,-14.055));
#536=CARTESIAN_POINT('',(0.,22.39999903812,-1.2));
#537=CARTESIAN_POINT('',(9.36657428212651E-12,12.2500548269614,68.4));
#538=CARTESIAN_POINT('',(0.,-22.39999903812,-1.2));
#539=CARTESIAN_POINT('',(-9.36652294774858E-12,-12.2500548269614,68.4));
#540=CARTESIAN_POINT('',(0.,0.,68.4));
#541=CARTESIAN_POINT('',(0.,0.,33.08658366985));
#542=CARTESIAN_POINT('',(0.,0.,68.4));
#543=CARTESIAN_POINT('',(0.,0.,33.08658366985));
#544=CARTESIAN_POINT('',(0.,0.,68.4));
#545=MECHANICAL_DESIGN_GEOMETRIC_PRESENTATION_REPRESENTATION('',(#299,#300,
#301,#302),#546);
#546=(
GEOMETRIC_REPRESENTATION_CONTEXT(3)
GLOBAL_UNCERTAINTY_ASSIGNED_CONTEXT((#547))
GLOBAL_UNIT_ASSIGNED_CONTEXT((#553,#549,#548))
REPRESENTATION_CONTEXT('69871.40ADB-SC.06','TOP_LEVEL_ASSEMBLY_PART')
);
#547=UNCERTAINTY_MEASURE_WITH_UNIT(LENGTH_MEASURE(2.E-5),#553,
'DISTANCE_ACCURACY_VALUE','Maximum Tolerance applied to model');
#548=(
NAMED_UNIT(*)
SI_UNIT($,.STERADIAN.)
SOLID_ANGLE_UNIT()
);
#549=(
CONVERSION_BASED_UNIT('DEGREE',#551)
NAMED_UNIT(#550)
PLANE_ANGLE_UNIT()
);
#550=DIMENSIONAL_EXPONENTS(0.,0.,0.,0.,0.,0.,0.);
#551=PLANE_ANGLE_MEASURE_WITH_UNIT(PLANE_ANGLE_MEASURE(0.0174532925),#552);
#552=(
NAMED_UNIT(*)
PLANE_ANGLE_UNIT()
SI_UNIT($,.RADIAN.)
);
#553=(
LENGTH_UNIT()
NAMED_UNIT(*)
SI_UNIT(.MILLI.,.METRE.)
);
ENDSEC;
END-ISO-10303-21;
