ISO-10303-21;
HEADER;
/* Generated by software containing ST-Developer
 * from STEP Tools, Inc. (www.steptools.com) 
 */
/* OPTION: using custom schema-name function */

FILE_DESCRIPTION(
/* description */ (''),
/* implementation_level */ '2;1');

FILE_NAME(
/* name */ '69871.40ADB-SC.08.160.stp',
/* time_stamp */ '2024-06-28T07:14:57+02:00',
/* author */ (''),
/* organization */ (''),
/* preprocessor_version */ 'ST-DEVELOPER v16.7',
/* originating_system */ 'SIEMENS PLM Software NX 12.0',
/* authorisation */ '');

FILE_SCHEMA (('AUTOMOTIVE_DESIGN { 1 0 10303 214 3 1 1 1 }'));
ENDSEC;

DATA;
#10=CONSTRUCTIVE_GEOMETRY_REPRESENTATION_RELATIONSHIP(
'supplemental geometry','',#32,#11);
#11=CONSTRUCTIVE_GEOMETRY_REPRESENTATION('supplemental geometry',(#301,
#302,#303),#514);
#12=PROPERTY_DEFINITION_REPRESENTATION(#16,#14);
#13=PROPERTY_DEFINITION_REPRESENTATION(#17,#15);
#14=REPRESENTATION('',(#18),#514);
#15=REPRESENTATION('',(#19),#514);
#16=PROPERTY_DEFINITION('pmi validation property','',#23);
#17=PROPERTY_DEFINITION('pmi validation property','',#23);
#18=VALUE_REPRESENTATION_ITEM('number of annotations',COUNT_MEASURE(0.));
#19=VALUE_REPRESENTATION_ITEM('number of views',COUNT_MEASURE(0.));
#20=SHAPE_REPRESENTATION_RELATIONSHIP('None',
'relationship between pf661D7883C3rt4u-None and pf661D7883C3rt4u-None',
#32,#21);
#21=ADVANCED_BREP_SHAPE_REPRESENTATION('pf661D7883C3rt4u-None',(#38),#514);
#22=SHAPE_DEFINITION_REPRESENTATION(#23,#32);
#23=PRODUCT_DEFINITION_SHAPE('','',#24);
#24=PRODUCT_DEFINITION(' ','',#26,#25);
#25=PRODUCT_DEFINITION_CONTEXT('part definition',#31,'design');
#26=PRODUCT_DEFINITION_FORMATION_WITH_SPECIFIED_SOURCE(' ',' ',#28,
 .NOT_KNOWN.);
#27=PRODUCT_RELATED_PRODUCT_CATEGORY('part','',(#28));
#28=PRODUCT('pf661D7883C3rt4u','pf661D7883C3rt4u',' ',(#29));
#29=PRODUCT_CONTEXT(' ',#31,'mechanical');
#30=APPLICATION_PROTOCOL_DEFINITION('international standard',
'automotive_design',2010,#31);
#31=APPLICATION_CONTEXT(
'core data for automotive mechanical design processes');
#32=SHAPE_REPRESENTATION('pf661D7883C3rt4u-None',(#300),#514);
#33=SURFACE_STYLE_USAGE(.BOTH.,#34);
#34=SURFACE_SIDE_STYLE('',(#35));
#35=SURFACE_STYLE_FILL_AREA(#36);
#36=FILL_AREA_STYLE('',(#37));
#37=FILL_AREA_STYLE_COLOUR('',#296);
#38=MANIFOLD_SOLID_BREP('',#39);
#39=CLOSED_SHELL('',(#74,#75,#76,#77,#78,#79,#80,#81,#82,#83,#84,#85,#86,
#87,#88,#89,#90,#91,#92,#93));
#40=LINE('',#487,#46);
#41=LINE('',#491,#47);
#42=LINE('',#495,#48);
#43=LINE('',#497,#49);
#44=LINE('',#504,#50);
#45=LINE('',#506,#51);
#46=VECTOR('',#407,1.);
#47=VECTOR('',#410,1.);
#48=VECTOR('',#417,1.);
#49=VECTOR('',#418,1.);
#50=VECTOR('',#429,1.);
#51=VECTOR('',#430,1.);
#52=FACE_OUTER_BOUND('',#146,.T.);
#53=FACE_OUTER_BOUND('',#147,.T.);
#54=FACE_OUTER_BOUND('',#148,.T.);
#55=FACE_OUTER_BOUND('',#149,.T.);
#56=FACE_OUTER_BOUND('',#152,.T.);
#57=FACE_OUTER_BOUND('',#153,.T.);
#58=FACE_OUTER_BOUND('',#154,.T.);
#59=FACE_OUTER_BOUND('',#155,.T.);
#60=TOROIDAL_SURFACE('',#318,28.5,0.5);
#61=TOROIDAL_SURFACE('',#322,28.5,0.5);
#62=TOROIDAL_SURFACE('',#338,16.5,3.);
#63=CONICAL_SURFACE('',#314,30.3362976321,60.);
#64=CONICAL_SURFACE('',#326,30.3362976321,60.);
#65=CONICAL_SURFACE('',#332,12.03626342104,4.5);
#66=CONICAL_SURFACE('',#334,12.03626342104,4.5);
#67=CONICAL_SURFACE('',#341,17.39989973582,8.2971);
#68=CONICAL_SURFACE('',#343,17.39989973582,8.2971);
#69=CYLINDRICAL_SURFACE('',#312,31.775);
#70=CYLINDRICAL_SURFACE('',#320,28.);
#71=CYLINDRICAL_SURFACE('',#327,31.775);
#72=CYLINDRICAL_SURFACE('',#336,13.5);
#73=CYLINDRICAL_SURFACE('',#339,13.5);
#74=ADVANCED_FACE('',(#100,#101),#94,.F.);
#75=ADVANCED_FACE('',(#102,#103),#95,.T.);
#76=ADVANCED_FACE('',(#104,#105),#69,.T.);
#77=ADVANCED_FACE('',(#106,#107),#63,.T.);
#78=ADVANCED_FACE('',(#108,#109),#96,.F.);
#79=ADVANCED_FACE('',(#110,#111),#60,.F.);
#80=ADVANCED_FACE('',(#112,#113),#70,.T.);
#81=ADVANCED_FACE('',(#114,#115),#61,.F.);
#82=ADVANCED_FACE('',(#116,#117),#97,.T.);
#83=ADVANCED_FACE('',(#118,#119),#64,.T.);
#84=ADVANCED_FACE('',(#120,#121),#71,.T.);
#85=ADVANCED_FACE('',(#52),#98,.T.);
#86=ADVANCED_FACE('',(#53),#65,.T.);
#87=ADVANCED_FACE('',(#54),#66,.T.);
#88=ADVANCED_FACE('',(#55),#72,.T.);
#89=ADVANCED_FACE('',(#122,#123),#62,.F.);
#90=ADVANCED_FACE('',(#56),#73,.T.);
#91=ADVANCED_FACE('',(#57),#67,.T.);
#92=ADVANCED_FACE('',(#58),#68,.T.);
#93=ADVANCED_FACE('',(#59),#99,.F.);
#94=PLANE('',#307);
#95=PLANE('',#310);
#96=PLANE('',#316);
#97=PLANE('',#324);
#98=PLANE('',#330);
#99=PLANE('',#344);
#100=FACE_BOUND('',#124,.T.);
#101=FACE_BOUND('',#125,.T.);
#102=FACE_BOUND('',#126,.T.);
#103=FACE_BOUND('',#127,.T.);
#104=FACE_BOUND('',#128,.T.);
#105=FACE_BOUND('',#129,.T.);
#106=FACE_BOUND('',#130,.T.);
#107=FACE_BOUND('',#131,.T.);
#108=FACE_BOUND('',#132,.T.);
#109=FACE_BOUND('',#133,.T.);
#110=FACE_BOUND('',#134,.T.);
#111=FACE_BOUND('',#135,.T.);
#112=FACE_BOUND('',#136,.T.);
#113=FACE_BOUND('',#137,.T.);
#114=FACE_BOUND('',#138,.T.);
#115=FACE_BOUND('',#139,.T.);
#116=FACE_BOUND('',#140,.T.);
#117=FACE_BOUND('',#141,.T.);
#118=FACE_BOUND('',#142,.T.);
#119=FACE_BOUND('',#143,.T.);
#120=FACE_BOUND('',#144,.T.);
#121=FACE_BOUND('',#145,.T.);
#122=FACE_BOUND('',#150,.T.);
#123=FACE_BOUND('',#151,.T.);
#124=EDGE_LOOP('',(#156));
#125=EDGE_LOOP('',(#157,#158));
#126=EDGE_LOOP('',(#159));
#127=EDGE_LOOP('',(#160));
#128=EDGE_LOOP('',(#161));
#129=EDGE_LOOP('',(#162));
#130=EDGE_LOOP('',(#163));
#131=EDGE_LOOP('',(#164));
#132=EDGE_LOOP('',(#165));
#133=EDGE_LOOP('',(#166));
#134=EDGE_LOOP('',(#167));
#135=EDGE_LOOP('',(#168));
#136=EDGE_LOOP('',(#169));
#137=EDGE_LOOP('',(#170));
#138=EDGE_LOOP('',(#171));
#139=EDGE_LOOP('',(#172));
#140=EDGE_LOOP('',(#173));
#141=EDGE_LOOP('',(#174));
#142=EDGE_LOOP('',(#175));
#143=EDGE_LOOP('',(#176));
#144=EDGE_LOOP('',(#177));
#145=EDGE_LOOP('',(#178));
#146=EDGE_LOOP('',(#179,#180));
#147=EDGE_LOOP('',(#181,#182,#183,#184));
#148=EDGE_LOOP('',(#185,#186,#187,#188));
#149=EDGE_LOOP('',(#189,#190,#191,#192));
#150=EDGE_LOOP('',(#193));
#151=EDGE_LOOP('',(#194,#195));
#152=EDGE_LOOP('',(#196,#197,#198,#199));
#153=EDGE_LOOP('',(#200,#201,#202,#203));
#154=EDGE_LOOP('',(#204,#205,#206,#207));
#155=EDGE_LOOP('',(#208,#209));
#156=ORIENTED_EDGE('',*,*,#231,.T.);
#157=ORIENTED_EDGE('',*,*,#232,.T.);
#158=ORIENTED_EDGE('',*,*,#233,.T.);
#159=ORIENTED_EDGE('',*,*,#234,.F.);
#160=ORIENTED_EDGE('',*,*,#235,.F.);
#161=ORIENTED_EDGE('',*,*,#234,.T.);
#162=ORIENTED_EDGE('',*,*,#236,.T.);
#163=ORIENTED_EDGE('',*,*,#236,.F.);
#164=ORIENTED_EDGE('',*,*,#237,.T.);
#165=ORIENTED_EDGE('',*,*,#237,.F.);
#166=ORIENTED_EDGE('',*,*,#238,.T.);
#167=ORIENTED_EDGE('',*,*,#238,.F.);
#168=ORIENTED_EDGE('',*,*,#239,.T.);
#169=ORIENTED_EDGE('',*,*,#239,.F.);
#170=ORIENTED_EDGE('',*,*,#240,.T.);
#171=ORIENTED_EDGE('',*,*,#240,.F.);
#172=ORIENTED_EDGE('',*,*,#241,.T.);
#173=ORIENTED_EDGE('',*,*,#241,.F.);
#174=ORIENTED_EDGE('',*,*,#242,.T.);
#175=ORIENTED_EDGE('',*,*,#242,.F.);
#176=ORIENTED_EDGE('',*,*,#243,.T.);
#177=ORIENTED_EDGE('',*,*,#243,.F.);
#178=ORIENTED_EDGE('',*,*,#231,.F.);
#179=ORIENTED_EDGE('',*,*,#244,.F.);
#180=ORIENTED_EDGE('',*,*,#245,.F.);
#181=ORIENTED_EDGE('',*,*,#246,.T.);
#182=ORIENTED_EDGE('',*,*,#247,.F.);
#183=ORIENTED_EDGE('',*,*,#248,.F.);
#184=ORIENTED_EDGE('',*,*,#245,.T.);
#185=ORIENTED_EDGE('',*,*,#248,.T.);
#186=ORIENTED_EDGE('',*,*,#249,.T.);
#187=ORIENTED_EDGE('',*,*,#246,.F.);
#188=ORIENTED_EDGE('',*,*,#244,.T.);
#189=ORIENTED_EDGE('',*,*,#250,.F.);
#190=ORIENTED_EDGE('',*,*,#249,.F.);
#191=ORIENTED_EDGE('',*,*,#251,.T.);
#192=ORIENTED_EDGE('',*,*,#252,.T.);
#193=ORIENTED_EDGE('',*,*,#235,.T.);
#194=ORIENTED_EDGE('',*,*,#252,.F.);
#195=ORIENTED_EDGE('',*,*,#253,.F.);
#196=ORIENTED_EDGE('',*,*,#251,.F.);
#197=ORIENTED_EDGE('',*,*,#247,.T.);
#198=ORIENTED_EDGE('',*,*,#250,.T.);
#199=ORIENTED_EDGE('',*,*,#253,.T.);
#200=ORIENTED_EDGE('',*,*,#254,.F.);
#201=ORIENTED_EDGE('',*,*,#233,.F.);
#202=ORIENTED_EDGE('',*,*,#255,.T.);
#203=ORIENTED_EDGE('',*,*,#256,.F.);
#204=ORIENTED_EDGE('',*,*,#255,.F.);
#205=ORIENTED_EDGE('',*,*,#232,.F.);
#206=ORIENTED_EDGE('',*,*,#254,.T.);
#207=ORIENTED_EDGE('',*,*,#257,.F.);
#208=ORIENTED_EDGE('',*,*,#257,.T.);
#209=ORIENTED_EDGE('',*,*,#256,.T.);
#210=VERTEX_POINT('',#446);
#211=VERTEX_POINT('',#448);
#212=VERTEX_POINT('',#449);
#213=VERTEX_POINT('',#453);
#214=VERTEX_POINT('',#455);
#215=VERTEX_POINT('',#458);
#216=VERTEX_POINT('',#461);
#217=VERTEX_POINT('',#464);
#218=VERTEX_POINT('',#467);
#219=VERTEX_POINT('',#470);
#220=VERTEX_POINT('',#473);
#221=VERTEX_POINT('',#476);
#222=VERTEX_POINT('',#479);
#223=VERTEX_POINT('',#483);
#224=VERTEX_POINT('',#484);
#225=VERTEX_POINT('',#488);
#226=VERTEX_POINT('',#490);
#227=VERTEX_POINT('',#496);
#228=VERTEX_POINT('',#498);
#229=VERTEX_POINT('',#505);
#230=VERTEX_POINT('',#507);
#231=EDGE_CURVE('',#210,#210,#258,.T.);
#232=EDGE_CURVE('',#211,#212,#259,.T.);
#233=EDGE_CURVE('',#212,#211,#260,.T.);
#234=EDGE_CURVE('',#213,#213,#261,.T.);
#235=EDGE_CURVE('',#214,#214,#262,.T.);
#236=EDGE_CURVE('',#215,#215,#263,.T.);
#237=EDGE_CURVE('',#216,#216,#264,.T.);
#238=EDGE_CURVE('',#217,#217,#265,.T.);
#239=EDGE_CURVE('',#218,#218,#266,.T.);
#240=EDGE_CURVE('',#219,#219,#267,.T.);
#241=EDGE_CURVE('',#220,#220,#268,.T.);
#242=EDGE_CURVE('',#221,#221,#269,.T.);
#243=EDGE_CURVE('',#222,#222,#270,.T.);
#244=EDGE_CURVE('',#223,#224,#271,.T.);
#245=EDGE_CURVE('',#224,#223,#272,.T.);
#246=EDGE_CURVE('',#223,#225,#40,.T.);
#247=EDGE_CURVE('',#226,#225,#273,.T.);
#248=EDGE_CURVE('',#224,#226,#41,.T.);
#249=EDGE_CURVE('',#226,#225,#274,.T.);
#250=EDGE_CURVE('',#225,#227,#42,.T.);
#251=EDGE_CURVE('',#226,#228,#43,.T.);
#252=EDGE_CURVE('',#228,#227,#275,.T.);
#253=EDGE_CURVE('',#227,#228,#276,.T.);
#254=EDGE_CURVE('',#211,#229,#44,.T.);
#255=EDGE_CURVE('',#212,#230,#45,.T.);
#256=EDGE_CURVE('',#229,#230,#277,.T.);
#257=EDGE_CURVE('',#230,#229,#278,.T.);
#258=CIRCLE('',#304,31.775);
#259=CIRCLE('',#305,22.6916641016621);
#260=CIRCLE('',#306,22.6916641016621);
#261=CIRCLE('',#308,31.775);
#262=CIRCLE('',#309,16.5);
#263=CIRCLE('',#311,31.775);
#264=CIRCLE('',#313,28.89759526419);
#265=CIRCLE('',#315,28.5);
#266=CIRCLE('',#317,28.);
#267=CIRCLE('',#319,28.);
#268=CIRCLE('',#321,28.5);
#269=CIRCLE('',#323,28.89759526419);
#270=CIRCLE('',#325,31.775);
#271=CIRCLE('',#328,10.5000000000024);
#272=CIRCLE('',#329,10.5000000000024);
#273=CIRCLE('',#331,13.5);
#274=CIRCLE('',#333,13.5);
#275=CIRCLE('',#335,13.5);
#276=CIRCLE('',#337,13.5);
#277=CIRCLE('',#340,12.2500548269618);
#278=CIRCLE('',#342,12.2500548269618);
#279=INVISIBILITY((#280,#281,#282));
#280=PRESENTATION_LAYER_ASSIGNMENT('100','Layer 100',(#301));
#281=PRESENTATION_LAYER_ASSIGNMENT('101','Layer 101',(#302));
#282=PRESENTATION_LAYER_ASSIGNMENT('102','Layer 102',(#303));
#283=PRESENTATION_LAYER_ASSIGNMENT('98','Layer 98',(#38));
#284=STYLED_ITEM('',(#288),#301);
#285=STYLED_ITEM('',(#289),#302);
#286=STYLED_ITEM('',(#290),#303);
#287=STYLED_ITEM('',(#291),#38);
#288=PRESENTATION_STYLE_ASSIGNMENT((#292));
#289=PRESENTATION_STYLE_ASSIGNMENT((#293));
#290=PRESENTATION_STYLE_ASSIGNMENT((#294));
#291=PRESENTATION_STYLE_ASSIGNMENT((#33));
#292=CURVE_STYLE('',#297,POSITIVE_LENGTH_MEASURE(0.7),#295);
#293=CURVE_STYLE('',#298,POSITIVE_LENGTH_MEASURE(0.7),#295);
#294=CURVE_STYLE('',#299,POSITIVE_LENGTH_MEASURE(0.7),#295);
#295=COLOUR_RGB('Medium Maroon',0.6,0.4,0.4);
#296=COLOUR_RGB('Medium Gray',0.490196078431373,0.490196078431373,0.490196078431373);
#297=DRAUGHTING_PRE_DEFINED_CURVE_FONT('continuous');
#298=DRAUGHTING_PRE_DEFINED_CURVE_FONT('continuous');
#299=DRAUGHTING_PRE_DEFINED_CURVE_FONT('continuous');
#300=AXIS2_PLACEMENT_3D('',#441,#345,#346);
#301=AXIS2_PLACEMENT_3D('PCS',#442,#347,#348);
#302=AXIS2_PLACEMENT_3D('CSW',#443,#349,#350);
#303=AXIS2_PLACEMENT_3D('MCS',#444,#351,#352);
#304=AXIS2_PLACEMENT_3D('',#445,#353,#354);
#305=AXIS2_PLACEMENT_3D('',#447,#355,#356);
#306=AXIS2_PLACEMENT_3D('',#450,#357,#358);
#307=AXIS2_PLACEMENT_3D('',#451,#359,#360);
#308=AXIS2_PLACEMENT_3D('',#452,#361,#362);
#309=AXIS2_PLACEMENT_3D('',#454,#363,#364);
#310=AXIS2_PLACEMENT_3D('',#456,#365,#366);
#311=AXIS2_PLACEMENT_3D('',#457,#367,#368);
#312=AXIS2_PLACEMENT_3D('',#459,#369,#370);
#313=AXIS2_PLACEMENT_3D('',#460,#371,#372);
#314=AXIS2_PLACEMENT_3D('',#462,#373,#374);
#315=AXIS2_PLACEMENT_3D('',#463,#375,#376);
#316=AXIS2_PLACEMENT_3D('',#465,#377,#378);
#317=AXIS2_PLACEMENT_3D('',#466,#379,#380);
#318=AXIS2_PLACEMENT_3D('',#468,#381,#382);
#319=AXIS2_PLACEMENT_3D('',#469,#383,#384);
#320=AXIS2_PLACEMENT_3D('',#471,#385,#386);
#321=AXIS2_PLACEMENT_3D('',#472,#387,#388);
#322=AXIS2_PLACEMENT_3D('',#474,#389,#390);
#323=AXIS2_PLACEMENT_3D('',#475,#391,#392);
#324=AXIS2_PLACEMENT_3D('',#477,#393,#394);
#325=AXIS2_PLACEMENT_3D('',#478,#395,#396);
#326=AXIS2_PLACEMENT_3D('',#480,#397,#398);
#327=AXIS2_PLACEMENT_3D('',#481,#399,#400);
#328=AXIS2_PLACEMENT_3D('',#482,#401,#402);
#329=AXIS2_PLACEMENT_3D('',#485,#403,#404);
#330=AXIS2_PLACEMENT_3D('',#486,#405,#406);
#331=AXIS2_PLACEMENT_3D('',#489,#408,#409);
#332=AXIS2_PLACEMENT_3D('',#492,#411,#412);
#333=AXIS2_PLACEMENT_3D('',#493,#413,#414);
#334=AXIS2_PLACEMENT_3D('',#494,#415,#416);
#335=AXIS2_PLACEMENT_3D('',#499,#419,#420);
#336=AXIS2_PLACEMENT_3D('',#500,#421,#422);
#337=AXIS2_PLACEMENT_3D('',#501,#423,#424);
#338=AXIS2_PLACEMENT_3D('',#502,#425,#426);
#339=AXIS2_PLACEMENT_3D('',#503,#427,#428);
#340=AXIS2_PLACEMENT_3D('',#508,#431,#432);
#341=AXIS2_PLACEMENT_3D('',#509,#433,#434);
#342=AXIS2_PLACEMENT_3D('',#510,#435,#436);
#343=AXIS2_PLACEMENT_3D('',#511,#437,#438);
#344=AXIS2_PLACEMENT_3D('',#512,#439,#440);
#345=DIRECTION('',(0.,0.,1.));
#346=DIRECTION('',(1.,0.,0.));
#347=DIRECTION('',(0.,0.,1.));
#348=DIRECTION('',(1.,0.,0.));
#349=DIRECTION('',(0.,0.,1.));
#350=DIRECTION('',(1.,0.,0.));
#351=DIRECTION('',(0.,0.,1.));
#352=DIRECTION('',(1.,0.,0.));
#353=DIRECTION('',(0.,0.,1.));
#354=DIRECTION('',(-1.,0.,0.));
#355=DIRECTION('',(0.,0.,-1.));
#356=DIRECTION('',(-1.,0.,0.));
#357=DIRECTION('',(0.,0.,-1.));
#358=DIRECTION('',(-1.,0.,0.));
#359=DIRECTION('',(0.,0.,-1.));
#360=DIRECTION('',(0.,1.,0.));
#361=DIRECTION('',(0.,0.,1.));
#362=DIRECTION('',(-1.,0.,0.));
#363=DIRECTION('',(0.,0.,-1.));
#364=DIRECTION('',(0.,1.,0.));
#365=DIRECTION('',(0.,0.,-1.));
#366=DIRECTION('',(0.,1.,0.));
#367=DIRECTION('',(0.,0.,-1.));
#368=DIRECTION('',(0.967376300599849,-0.253343823760813,0.));
#369=DIRECTION('',(0.,0.,-1.));
#370=DIRECTION('',(0.,1.,0.));
#371=DIRECTION('',(0.,0.,-1.));
#372=DIRECTION('',(0.960415959422322,-0.278569892283607,0.));
#373=DIRECTION('',(0.,0.,-1.));
#374=DIRECTION('',(0.,1.,4.1340739373327E-17));
#375=DIRECTION('',(0.,0.,-1.));
#376=DIRECTION('',(0.959280213898982,-0.282456140350895,0.));
#377=DIRECTION('',(0.,0.,-1.));
#378=DIRECTION('',(0.,1.,0.));
#379=DIRECTION('',(0.,0.,-1.));
#380=DIRECTION('',(0.957780637724524,-0.287500000000007,0.));
#381=DIRECTION('',(0.,0.,-1.));
#382=DIRECTION('',(-0.00415426945299211,0.999991370985426,0.));
#383=DIRECTION('',(0.,0.,-1.));
#384=DIRECTION('',(0.957780637724524,-0.287500000000007,0.));
#385=DIRECTION('',(0.,0.,-1.));
#386=DIRECTION('',(0.,1.,0.));
#387=DIRECTION('',(0.,0.,-1.));
#388=DIRECTION('',(0.959280213898982,-0.282456140350895,0.));
#389=DIRECTION('',(0.,0.,-1.));
#390=DIRECTION('',(-0.0039631344949438,0.999992146751651,0.));
#391=DIRECTION('',(0.,0.,-1.));
#392=DIRECTION('',(0.960415959422322,-0.278569892283607,0.));
#393=DIRECTION('',(0.,0.,-1.));
#394=DIRECTION('',(0.,1.,0.));
#395=DIRECTION('',(0.,0.,-1.));
#396=DIRECTION('',(0.967376300599849,-0.253343823760813,0.));
#397=DIRECTION('',(0.,0.,1.));
#398=DIRECTION('',(0.,-1.,2.65761895971388E-17));
#399=DIRECTION('',(0.,0.,-1.));
#400=DIRECTION('',(0.,1.,0.));
#401=DIRECTION('',(0.,0.,1.));
#402=DIRECTION('',(-1.,0.,0.));
#403=DIRECTION('',(0.,0.,1.));
#404=DIRECTION('',(-1.,0.,0.));
#405=DIRECTION('',(0.,0.,-1.));
#406=DIRECTION('',(0.,1.,0.));
#407=DIRECTION('',(-9.42473959831026E-14,-0.0784590957278522,0.996917333733127));
#408=DIRECTION('',(0.,0.,1.));
#409=DIRECTION('',(0.,1.,0.));
#410=DIRECTION('',(9.42560711938426E-14,0.0784590957278522,0.996917333733127));
#411=DIRECTION('',(0.,0.,1.));
#412=DIRECTION('',(0.,-1.,3.05887111431798E-16));
#413=DIRECTION('',(0.,0.,-1.));
#414=DIRECTION('',(0.,1.,0.));
#415=DIRECTION('',(0.,0.,1.));
#416=DIRECTION('',(0.,-1.,3.05887111431798E-16));
#417=DIRECTION('',(-4.818576491496E-14,0.,1.));
#418=DIRECTION('',(4.818270056145E-14,0.,1.));
#419=DIRECTION('',(0.,0.,-1.));
#420=DIRECTION('',(0.,1.,0.));
#421=DIRECTION('',(0.,0.,-1.));
#422=DIRECTION('',(0.,1.,0.));
#423=DIRECTION('',(0.,0.,-1.));
#424=DIRECTION('',(0.,-1.,0.));
#425=DIRECTION('',(0.,0.,-1.));
#426=DIRECTION('',(0.00821976346203879,-0.999966217173674,0.));
#427=DIRECTION('',(0.,0.,-1.));
#428=DIRECTION('',(0.,1.,0.));
#429=DIRECTION('',(1.33168609664097E-13,-0.144306116415197,0.989533094325381));
#430=DIRECTION('',(-1.33167879821197E-13,0.144306116415197,0.989533094325381));
#431=DIRECTION('',(0.,0.,1.));
#432=DIRECTION('',(-1.,0.,0.));
#433=DIRECTION('',(0.,0.,-1.));
#434=DIRECTION('',(0.,1.,-2.55055708228373E-16));
#435=DIRECTION('',(0.,0.,1.));
#436=DIRECTION('',(-1.,0.,0.));
#437=DIRECTION('',(0.,0.,-1.));
#438=DIRECTION('',(0.,1.,-2.55055708228373E-16));
#439=DIRECTION('',(0.,0.,-1.));
#440=DIRECTION('',(0.,1.,0.));
#441=CARTESIAN_POINT('',(0.,0.,0.));
#442=CARTESIAN_POINT('',(0.,0.,0.));
#443=CARTESIAN_POINT('',(0.,0.,-160.));
#444=CARTESIAN_POINT('',(0.,0.,0.));
#445=CARTESIAN_POINT('',(0.,0.,-3.19999999999999));
#446=CARTESIAN_POINT('',(-31.775,0.,-3.19999999999999));
#447=CARTESIAN_POINT('',(0.,0.,-3.2));
#448=CARTESIAN_POINT('',(0.,22.6916641016621,-3.2));
#449=CARTESIAN_POINT('',(-6.12411196672187E-12,-22.6916641016621,-3.2));
#450=CARTESIAN_POINT('',(0.,0.,-3.2));
#451=CARTESIAN_POINT('',(0.,0.,-3.2));
#452=CARTESIAN_POINT('',(0.,0.,-19.1));
#453=CARTESIAN_POINT('',(-31.775,0.,-19.1));
#454=CARTESIAN_POINT('',(0.,0.,-19.1));
#455=CARTESIAN_POINT('',(0.,16.5,-19.1));
#456=CARTESIAN_POINT('',(0.,0.,-19.1));
#457=CARTESIAN_POINT('',(0.,0.,-14.636270398786));
#458=CARTESIAN_POINT('',(30.7383819515602,-8.04999999999983,-14.636270398786));
#459=CARTESIAN_POINT('',(0.,0.,72.775));
#460=CARTESIAN_POINT('',(0.,0.,-12.975));
#461=CARTESIAN_POINT('',(27.753711680655,-8.05000000000067,-12.975));
#462=CARTESIAN_POINT('',(0.,0.,-13.805635199393));
#463=CARTESIAN_POINT('',(0.,0.,-12.975));
#464=CARTESIAN_POINT('',(27.339486096121,-8.0500000000005,-12.975));
#465=CARTESIAN_POINT('',(0.,0.,-12.975));
#466=CARTESIAN_POINT('',(0.,0.,-12.475));
#467=CARTESIAN_POINT('',(26.8178578562867,-8.0500000000002,-12.475));
#468=CARTESIAN_POINT('',(0.,0.,-12.475));
#469=CARTESIAN_POINT('',(0.,0.,-9.725));
#470=CARTESIAN_POINT('',(26.8178578562867,-8.0500000000002,-9.725));
#471=CARTESIAN_POINT('',(0.,0.,72.775));
#472=CARTESIAN_POINT('',(0.,0.,-9.225));
#473=CARTESIAN_POINT('',(27.339486096121,-8.0500000000005,-9.225));
#474=CARTESIAN_POINT('',(0.,0.,-9.725));
#475=CARTESIAN_POINT('',(0.,0.,-9.225));
#476=CARTESIAN_POINT('',(27.753711680655,-8.05000000000067,-9.225));
#477=CARTESIAN_POINT('',(0.,0.,-9.225));
#478=CARTESIAN_POINT('',(0.,0.,-7.56372960121));
#479=CARTESIAN_POINT('',(30.7383819515602,-8.04999999999983,-7.56372960121));
#480=CARTESIAN_POINT('',(0.,0.,-8.39436480061));
#481=CARTESIAN_POINT('',(0.,0.,72.775));
#482=CARTESIAN_POINT('',(0.,0.,-160.));
#483=CARTESIAN_POINT('',(3.60203582528196E-12,-10.4999999999929,-160.));
#484=CARTESIAN_POINT('',(-3.60236753484328E-12,10.4999999999929,-160.));
#485=CARTESIAN_POINT('',(0.,0.,-160.));
#486=CARTESIAN_POINT('',(0.,0.,-160.));
#487=CARTESIAN_POINT('',(3.514914428569E-12,-10.57252684207,-159.0784590957));
#488=CARTESIAN_POINT('',(0.,-13.5,-121.8813857915));
#489=CARTESIAN_POINT('',(0.,0.,-121.8813857915));
#490=CARTESIAN_POINT('',(0.,13.5,-121.8813857915));
#491=CARTESIAN_POINT('',(-3.515238118848E-12,10.57252684207,-159.0784590957));
#492=CARTESIAN_POINT('',(0.,0.,-140.4799224436));
#493=CARTESIAN_POINT('',(0.,0.,-121.8813857915));
#494=CARTESIAN_POINT('',(0.,0.,-140.4799224436));
#495=CARTESIAN_POINT('',(0.,-13.5,-121.8813857915));
#496=CARTESIAN_POINT('',(0.,-13.5,-22.1));
#497=CARTESIAN_POINT('',(0.,13.5,-121.8813857915));
#498=CARTESIAN_POINT('',(0.,13.5,-22.1));
#499=CARTESIAN_POINT('',(0.,0.,-22.1));
#500=CARTESIAN_POINT('',(0.,0.,-12.055));
#501=CARTESIAN_POINT('',(0.,0.,-22.1));
#502=CARTESIAN_POINT('',(0.,0.,-22.1));
#503=CARTESIAN_POINT('',(0.,0.,-12.055));
#504=CARTESIAN_POINT('',(0.,22.39999903812,-1.2));
#505=CARTESIAN_POINT('',(9.36657428212651E-12,12.2500548269614,68.4));
#506=CARTESIAN_POINT('',(0.,-22.39999903812,-1.2));
#507=CARTESIAN_POINT('',(-9.36652294774858E-12,-12.2500548269614,68.4));
#508=CARTESIAN_POINT('',(0.,0.,68.4));
#509=CARTESIAN_POINT('',(0.,0.,33.08658366985));
#510=CARTESIAN_POINT('',(0.,0.,68.4));
#511=CARTESIAN_POINT('',(0.,0.,33.08658366985));
#512=CARTESIAN_POINT('',(0.,0.,68.4));
#513=MECHANICAL_DESIGN_GEOMETRIC_PRESENTATION_REPRESENTATION('',(#284,#285,
#286,#287),#514);
#514=(
GEOMETRIC_REPRESENTATION_CONTEXT(3)
GLOBAL_UNCERTAINTY_ASSIGNED_CONTEXT((#515))
GLOBAL_UNIT_ASSIGNED_CONTEXT((#521,#517,#516))
REPRESENTATION_CONTEXT('69871.40ADB-SC.08','TOP_LEVEL_ASSEMBLY_PART')
);
#515=UNCERTAINTY_MEASURE_WITH_UNIT(LENGTH_MEASURE(2.E-5),#521,
'DISTANCE_ACCURACY_VALUE','Maximum Tolerance applied to model');
#516=(
NAMED_UNIT(*)
SI_UNIT($,.STERADIAN.)
SOLID_ANGLE_UNIT()
);
#517=(
CONVERSION_BASED_UNIT('DEGREE',#519)
NAMED_UNIT(#518)
PLANE_ANGLE_UNIT()
);
#518=DIMENSIONAL_EXPONENTS(0.,0.,0.,0.,0.,0.,0.);
#519=PLANE_ANGLE_MEASURE_WITH_UNIT(PLANE_ANGLE_MEASURE(0.0174532925),#520);
#520=(
NAMED_UNIT(*)
PLANE_ANGLE_UNIT()
SI_UNIT($,.RADIAN.)
);
#521=(
LENGTH_UNIT()
NAMED_UNIT(*)
SI_UNIT(.MILLI.,.METRE.)
);
ENDSEC;
END-ISO-10303-21;
